Oops, an error
Loading. Please wait.

La Constelación De La Virgen Tab

89 views 1 this week
no commentswrite comment
1 2 3 4 5
3 more votes to show rating
add to favorites
×
Save as Personal and add changes to this tab that will be seen only by you. Learn more ›
×
You can save this tab as Personal to edit and correct it or add notes. All changes will be seen only by you. Learn more »
save as personal
new!
launch autoscroll
font size
0
reset
how to read this tab
guitar tuner
Autoscroll
slow
fast
+/-
esc
set tempo
stop
Basada en la transcripcion de Jorge de Pque. Chacabuco
------------------------------------------------------

Intro con arpegios con las siguientes notas:

     Em                             D
E||------------------------------|------------------------------|
B||----0------0------0------0----|----0------0------0------0----|
G||------0------0------0------0--|------0------0------0------0--|
D||--------5-------------5-------|--------4-------------4-------|
A||--7-------------7-------------|--5-------------5-------------|
E||------------------------------|------------------------------|

  Em                             D
------------------------------|------------------------------|
----0------0------0------0----|----0------0------0------0----|
------0------0------0------0--|------0------0------0------0--|
--------5-------------5-------|--------4-------------4-------|
--7-------------7-------------|--5-------------5-------------|
------------------------------|------------------------------|

  C             Bm               C             Bm


------------------------------|------------------------------|
--------1-------------3-------|--------1-------------3-------|
------0----0--------4----4----|------0----0--------4----4----|
----2--------2----4--------4--|----2--------2----4--------4--|
--3-------------2-------------|--3-------------2-------------|
------------------------------|------------------------------|

  C             D                Em
------------------------------|--7----------------||
--------5-------------7-------|--8----------------||
------5----5--------7----7----|--9--Dejar-Sonar---||
----5--------5----7--------7--|--9----------------||
--3-------------5-------------|--7----------------||
------------------------------|-------------------||

Em D Em D


Acá empieza la letra, el primer verso se puede hacer
con el arpegio de fondo más lento.


Em        Em/G      Em        Em/G
Se que te cansas de tanto esperar
           D         D/F#   D         D/F#
y que las noches son largas en este invierno.
Em      Em/G   Em       Em/G        D
Es un desierto cuando camino la ciudad
     D/F#    D          D/F#
y no puedo tenerte a mi lado.

Em       Em/G  Em        Em/G
Y las mentiras que nos contamos
         D       D/F#  D        D/F#
son las caras vencidas de los relojes,
 C          Bm       C   Bm   C   Dsus4   D
pero si te vas...

G              D     C     D   C
nunca voy a poder llegar a tiempo,
G              D   C      D   C     Bm       C
nunca voy a poder amar despierto, oh no, mi amor,
       Bm     C    D   Em
nunca mas...


1er Solo:

e|----------------------------|10-12-10-8-10-8-7-8-7---------|
B|----------------------------|----------------------10-8-7--|
G|----------------------------|----------------------------9-|
D|-------7--------------------|------------------------------|
A|-7-9-10-10--9h10p9-7-5-7-5--|------------------------------|
E|----------------------------|------------------------------|

--------------------------------------8-7h8p7----7h8-7----------|
-------------------------------------------------------10-8-7---|
---------11-12-11-12/14-(14)(14)(14)--------------------------9-|
-9-10-12--------------------------------------------------------|
----------------------------------------------------------------|
----------------------------------------------------------------|

---------------------------------------|
---------------------------------------|
-9-11-11h12--11--9--7-9-9/11-9-7-7h9-7~|
---------------------------------------|
---------------------------------------|
---------------------------------------|


Vi en tus ojos miles de niños
cobijando la historia la espada del tiempo.
Flores del agua, son nuestros hijos
en sus naves doradas las alas del viento.

Pueden mirarse a travez de los cuerpos
como miras la luz en mi ventana,
el mañana es hoy.

Corre el año dos mil el mundo es otro,
corre el año dos mil la gente vuela, al fin mi amor volo,
tambien, mi amor, volo...


2do Solo:

E||--12-------|------------|--------12~------|
B||------12~--|--------7~--|-----12----------|
G||-----------|-----7------|--12-------------|
D||-----------|--7---------|-----------------|
A||-----------|------------|-----------------|
E||-----------|------------|-----------------|

--------14~--|--15~-------15/14-14~-----|
-----15------|--15~---------------------|
--14---------|--------------------------|
-------------|--------------------------|
-------------|--------------------------|
-------------|--------------------------|

---10/12-10~------15~-----|----15/14-17~-----|
------------------15~-----|------------------|
--------------------------|------------------|
--------------------------|------------------|
--------------------------|------------------|
--------------------------|------------------|

-----15-19~-----(19)------|--15/14--14--14/12--12--12/10--|
--17----------------------|-------------------------------|
--------------------------|-------------------------------|
--------------------------|-------------------------------|
--------------------------|-------------------------------|
--------------------------|-------------------------------|

--10--10/8--8--8/7--7--7/5--5--5/3--3-3--3h5p3--|
------------------------------------------------|
------------------------------------------------|
------------------------------------------------|
------------------------------------------------|
------------------------------------------------|

--------------------------------------------------|
--7h8-8----5-7h8p7-7--7/5--5--5-------------------|
--------------------------------7--7--7/5--5--5/4-|
--------------------------------------------------|
--------------------------------------------------|
--------------------------------------------------|

---------------------||
---------------------||
-4--4--4/2--2--2-----||
------------------5--||
---------------------||
---------------------||

Y aqui entre las calles algo de luna
aligera la noche, sigue lloviendo.
Tus pensamientos estrellas distantes
que nunca se acercan, duermen tus sueños.

Si con tus manos no podes tocar
el fondo distante de este banco de nieblas
a tu constelacion.

Nunca van a llegar los astronautas,
nunca van a llegar los astronautas a tu constelacion,
oh, no, no...
Suggest correction
Give kudos to tab author, rate the tab!
1 2 3 4 5
comments
print report bad tab
guest
Wanna post a correction for this tab? Suggest correction