Oops, an error
Loading. Please wait.

La Constelación De La Virgen Bass

53 views 1 this week
no commentswrite comment
1 2 3 4 5
3 more votes to show rating
add to favorites
launch autoscroll
font size
0
reset
guitar tuner
×
Best way to learn
"La Constelación De La Virgen"
Autoscroll
slow
fast
+/-
esc
set tempo
stop
Intro

cuando entra el bajo hace esto
1---------------------------------------------------------------I
2---------------------------------------------------------------I
3-0-3---0-2---0-3---0-2---0-3-------5-------7-------------------I
4---------------------------------------------------------------I

Entra con la bateria haciendo esto:
 1---------------------------------------------------------------I
2---------9-----------4-45------------9-----------4-45----------I
3-7-7--7-7----5-5--5-5-5------7-7--7-7----5-5--5-5-5------------I
4--------------------------------79----------57-----------------I


Verso
se que t cansas...
1-------------------------------------I
2-----------9-----------4-45----------I  2 veces
3---7-7--7-7----5-5--5-5-5------------I
4------79----------57-----------------I


si las mentiras..
1------------------------------------------------I
2----------------------------7-------------------I
3--------02------------02-5-5---5-5--------------I
4-0-0-024------0-0--024--------------------------I


pero si te vas...
1-----------------------------------------------
2------------------02320----------------------------
3-3-3--3302-2-22-03------022-02-03-3-------------
4-----------------------------------------------


nunca van a poder..
1---------------------------------I
2------------------232------------I   2 veces
3--------0-2-2-0203---3--5-3------I
4--0-2-4--------------------------I

oh, no mi aamoorr
1------034----------034------------------------I
2--------------------------232-----------------I
3--2-2-----0-0---2-2----3-3-------5-5----------I
4----------------------------------------------I

solo de guitarra
1-------------------------------------I
2-----------9-----------4-45----------I  4 veces
3---7-7--7-7----5-5--5-5-5------------I
4------79----------57-----------------I


y se repite todo de vuelta

mientras la guitarra hace otra cortina el bajo hace esto
1----------------------------------------I
2------------45754-----------------------I
3--------2-0------5-3-2-232--------------I 2 veces
4-0-2--3---------------------------------I


y repite otra vez todo

a mi me suena bastante bien, tiene mucho juego de notas,
tienen que escuchar el tema
asi se dan cuenta de como se tocan las notas y cuando cambia de verso.
Suggest correction
Give kudos to tab author, rate the tab!
1 2 3 4 5
comments
print report bad tab
guest
You may want to rate the tab now too:
select rating
Wanna post a correction for this tab? Suggest correction