Oops, an error
Loading. Please wait.

Llámame Tab

37 views 1 this week
no commentswrite comment
1 2 3 4 5
3 more votes to show rating
add to favorites
launch autoscroll
font size
0
reset
how to read this tab
guitar tuner
Autoscroll
slow
fast
+/-
esc
set tempo
stop
Help us to improve Ultimate-Guitar.com Take our survey!
×
Intro G-E-C-D


  G     E     C     D
-3-3-|-0-0-|-3-3-|-2-2---|
-3-3-|-0-0-|-5-5-|-3-3---|
-----|-----|-5-5-|-2-2---|   En el estribillo
-----|-----|-----|-------|  hacer las notas completas.
-----|-----|-----|-------|
-----|-----|-----|-------|


VERSO:INTRO
-----------


SI estas al pedo, llamame

si tienes miedo, llamame

si estas colgada, llamame

si no haces nada, llamame

si estas herida, llamame

si estas aburrida, lla ma me

si vas al baño, llevame

si tienes sueño llamame y seremos tres.


ESTRIBILLO:
-----------

G            E            C                    D Dsus4 D
Pero quiero que me llames siempre que tu quieras
G            E               C         D Dsus4 D
siempre que necesites de un amor caliente.
G            E                  C              D Dsus4 D
Nena llamame sola o con tus amigas, llamame ahora
G            E                C              D Dsus4 D
que el tiempo que pasa no se lleva la tristeza.....


...Dicen que una chica cubana que le gusta la banana
cuando fuma marihuana, esta bien a gozar....


Yo no se como hacerte feliz ¡mas feliz¡


Solo:

------------|---------------------------------------|---------------|---------
-----------3|----3-----3-----3-----3-----3----------|---------------|---------
-----0-2/4--|3h4---3h4---3h4---3h4---3h4---3-3------|-----0-2p0-0---|---------
-0h2--------|----------------------------------5-5--|-0h2---------2-|---------
------------|---------------------------------------|---------------|---------
------------|---------------------------------------|---------------|---------


--------------------------|-7-7-7-7-7-7--7h8-8-7h8-8-8-8-8-8-8-8-|------------
-----1-----1-----1-----1-/|-8-8-8-8-8-8--8-8-8-8-8-8-8-8-8-8-8-8-|------------
-------------------------/|--------------------------------------|------------
-0h2---0h2---0h2---0h2---/|--------------------------------------|------------
--------------------------|--------------------------------------|------------
--------------------------|--------------------------------------|------------


-7-7-7-7-7-7-7-7-7h8-8-7h8-8-8/10-|--|-15-14-12-14-12-------------------------
-8-8-8-8-8-8-8-8-8-8-8-8-8-8-8/10-|--|----------------15-13-12-13-12----------
----------------------------------|--|-------------------------------14-12-14-
----------------------------------|x2|----------------------------------------
----------------------------------|--|----------------------------------------
----------------------------------|--|----------------------------------------


-------------------|--------------------------------------------------|-------
-------------------|-----------------------------------16b15-17b-15---|-------
-12-------------12-|----------------15------------------------------12|-------
----14-12-14-12----|----12-14-14/16----16-14-12----12-----------------|-------
-------------------|-14-------------------------14--------------------|-------
-------------------|--------------------------------------------------|-------


---------------------------------------------------|--------------------------
----------------------------------16b-15-17b-15----|--------------------------
----------------15------------------------------12-|----------------15--------
----12-14-14/16----16-14-12----12------------------|----12-14-14/16----16-14--
-14-------------------------14---------------------|-14-----------------------
---------------------------------------------------|--------------------------


--------------|
--------------|
-------12\----|
-12----12\----|
----14--------|
--------------|


Si estas al pedo,llamame
si tienes miedo,llamame
si estas colgada,llamame
si no haces nada,llamame
si estas herida,llamame.

Si estas aburrida, llamame

si vas al baño, llevame

si tienes sueño, llamame y seremos tres


Pero quiero que me llames siempre que tu quieras

siempre que necesites de un amor caliente.

Nena llamame sola o con tus amigas, llamame ahora

que el tiempo que pasa no se lleva la tristeza...


Si queres a tu mama
si queres a tu papa
no le digas quien soy yo
no no para que lo vas a hacer sentir asi...


El solo no esta perfecto pero con lo que saque pueden tomar una idea


Escriban a la direccion para compartir fechas con sus bandas en zona sur.

reygarufa6581@
Suggest correction
Give kudos to tab author, rate the tab!
1 2 3 4 5
comments
print report bad tab
guest
You may want to rate the tab now too:
select rating
Wanna post a correction for this tab? Suggest correction