Oops, an error
Loading. Please wait.

Llámame Bass

14 views 1 this week
no commentswrite comment
1 2 3 4 5
3 more votes to show rating
add to favorites
launch autoscroll
font size
0
reset
guitar tuner
×
Best way to learn
"Llámame"
Autoscroll
slow
fast
+/-
esc
set tempo
stop
...el tema es bastante simple...son 4 notas todo el tema,
pero hay q mantener un tema d 4 minutos haciendo lo mismo...
ahi les va :p


G|--------------------------------------|
D|------------9---------------7---------|
A|--------7-7---7----7----5-5---5-------|
E|-3-5-3-----------8---8----------------|

bueno...esa vendria a ser la base principal del tema...
despues les pueden poner estos arreglos q van en el tema tmb

G|----------------------------------------------9-9------------------|
D|------------9-7---------------7------------------------------7-----|
A|--------7-7-----7----7----5-5---5---------7-7-------7----5-5---5---|
E|-3-5-3-------------8---8-----------3-5-3----------8---8------------|


y despues pueden usar su cabeza+las escalas para los arreglos :P


saludos gente
Suggest correction
Give kudos to tab author, rate the tab!
1 2 3 4 5
comments
print report bad tab
guest
You may want to rate the tab now too:
select rating
Wanna post a correction for this tab? Suggest correction