Oops, an error
Loading. Please wait.

Los Querandíes Tab

98 views 1 this week
no commentswrite comment
1 2 3 4 5
3 more votes to show rating
add to favorites
launch autoscroll
font size
0
reset
how to read this tab
guitar tuner
×
Best way to learn
"Los Querandíes"
Autoscroll
slow
fast
+/-
esc
set tempo
stop
intro (Em-G)x2 (C-G)x2 (D-?-C-G)

   Em   G   Em  G    C    G  C    G   D    ?   C    G

1|-7---10---7---10---8---10--8---10---10---9---8---10-|
2|-8---12---8---12---8---12--8---12---10---9---8---12-|
3|-9---12---9---12---9---12--9---12---11---11--9---12-|
4|-9---12---9---12---10--12--10--12---12---12--10--12-|
5|-7---10---7---10---10--10--10--10---12---12--10--10-|
6|-7---10---7---10---8---10--8---10---10---9---8---10-|

Em                   G
Somos los querandies herederos de esta tierra
Em                     G
somos nietos del indio que mataron estos hombres de mierda
C                       G
se llevaron el oro nos quitaron nuestras tierras
C                       G
pero nunca pudieron con la naturaleza
D                     ?       C                G
no necesito las luces,ni los lujos de la ciudad


Tengo mujer y amigos y muchas cosas que dar
tengo un cielo claro y una luna para mirar
tengo un caballo loco que me lleva a cabalgar
para calmar mis penas dando vueltas sin parar
no necesito las luces ni los lujos de la ciudad


tengo plantas y flores, y un rancho humilde es mi hogar
tengo los animales y cosas para cuidar
solo le pido a los dioses que no llueva sin parar
que llueva lo necesario como para cosechar
porque si el agua no para nos quedamos sin hogar

1|---15-14-12-14-12---7-7-7h8-7----|x2
2|12-------------------------------|
3|---------------------------------|
4|---------------------------------|
5|---------------------------------|
6|---------------------------------|

1|--12-10-8-10-8-------------------|x2
2|8----------------8--12-10-12-10-8|
3|---------------------------------|
4|---------------------------------|
5|---------------------------------|
6|---------------------------------|

1|-10-12-12/14-12-10--8-10-10/12-10-8-7-|
2|--------------------------------------|
3|--------------------------------------|
4|--------------------------------------|
5|--------------------------------------|
6|--------------------------------------|

Siento pena del hombre que puede descansar
de los que viven corriendo y no saben contemplar
la inmensidad del cielo las estrellas y el mar
que todo lo mas lindo no se puede comprar
creen en el dinero ese dios artificial

Tienen la mirada triste y no paran de cantar
saben lo necesario y no quieren saber mas
viven agradeciendo a la tierra lo que les da
y como la tierra es buena lo que le piden le da
no necesito las luces ni los lujos de la ciudad

Se que un dia los dioses me vendran a buscar
que la vida y la muerte tienen que pasar
pero no tengo miedo ni quiero eternidad
y agradesco a la vida esta oportunidad
esta oportunidad de AMAR!


Rosario Es el Rocnaroll!!!!!
Korneta Not Dead!
Saludos a mi novia Karina te amo...........No puedo parar este sentimiento
Suggest correction
Give kudos to tab author, rate the tab!
1 2 3 4 5
comments
print report bad tab
guest
You may want to rate the tab now too:
select rating
Wanna post a correction for this tab? Suggest correction