Oops, an error
Loading. Please wait.

Los Querandíes Bass Tab

version 1
version 1

Whole song

41 views 1 this week
no commentswrite comment
1 2 3 4 5
3 more votes to show rating
add to favorites
launch autoscroll
font size
0
reset
guitar tuner
×
Best way to learn
"Los Querandíes"
Autoscroll
slow
fast
+/-
esc
set tempo
stop
Intro (guitarra sola, el bajo entra en C)


G|-----------------------------------------------|
D|-----------------------------------------------|
A|-3-3-3-3-3-3-3---------------------------------|
E|---------------3-3-3-3-3-3-3-3-3-3-3-3-3-------|


G|----------------------------------------------------------|
D|----------------------------------------------------------|
A|----------------------------------------5-5--5-3-2--------|  X2
E|-0--0-0-0-0-0-0-0-0-0--0---3--3-3-3-3-3-------------------|

Somos los Querandíes, herederos de esta tierra
Somos nietos del indio que mataron esos hombres de mierda

G|-----------------------------------------------------|
D|--------------5-5--5-3-2-----------------------------|
A|--3-3-3-3-3-3---------------------------5-5--5-3-2---|  X2
E|--------------------------3-3-3-3-3-3----------------|

Se llevaron el oro, nos quitaron nuestras tierras
Pero nunca pudieron con la naturaleza

G|------------------------------------------------------------------------|
D|-------------7-7--7-5-4--------------5-5--5-3-2-------------------------|
A|-5-5-5-5-5-5-------------3-3-3-3-3-3------------------------------------|
E|-------------------------------------------------3-3-3-3-3-3-3-3-3-3-3--|
    No necesito las luces ni los lujos de la ciudad


aasi es todo el tema x ahi se manda un par d arreglos en el
 solo d guitarra y 1 parte donde el bajo deja d tocar y entra d nuevo en C,
pero no les puedo estar diciendo todo jaja saludos gente q lo disfruten
Suggest correction
Give kudos to tab author, rate the tab!
1 2 3 4 5
comments
print report bad tab
guest
You may want to rate the tab now too:
select rating
Wanna post a correction for this tab? Suggest correction