Oops, an error
Loading. Please wait.

Los Querandíes Bass

version 2
version 2

Whole song

20 views 1 this week
no commentswrite comment
1 2 3 4 5
3 more votes to show rating
add to favorites
launch autoscroll
font size
0
reset
guitar tuner
Autoscroll
slow
fast
+/-
esc
set tempo
stop
Somos los querandies, herederos de esta tierra
-------------------------------------------------
-------------------------------------------------
*7-7-7--5--7--5-------------------------2-5---- -
---------------------3--3-3--0-3----3------------

somos nietos del indio, que mataron esos hombres de mierda
Em                      G
-------------------------------------------------
-------------------------------------------------
*7-7-7--5--7--5-------------------------2-5---- -
---------------------3--3-3--0-3----3------------


se llevaron el oro,        nos quitaron nuestras tierras
--------------------------------------------------------------------
------------------2-2-2-2-----------------------------------------
---3-3 3 ---3---------------5--3--------------------------2---5-
---------------------------------------3--3-3-0-3----3-------------

pero nunca pudieron                 con la naturaleza
C                                             G
--------------------------------------------------------------------
------------------2-2-2-2--0---------------------------------------
---3-3 3 ---3-----------------3------------------------------
----------------------------------------3--3-3-0-3----3---3-3----

No necesito las luces               ni los lujos        de la
  D                                         C
---------------------------------------------------------------
-----------------4-4-4-4---2---------------------2-2-2-2-0-----
-----5-5-5-5-------------------5-----3-3-3-3-----------------3--
------------------------------------------------------------------

cuidad
G
---------------------------------------------------------------
---------------------------------------------------------------
------------5--5-5-4-2----------------------------2--5----
-3-3-3-3-------------------3-3-3--3--------3------------


bueno, eso es todo el tema.. en los solos hace lo mismo.

esta taaaaal cual, jaja.. asi q no lo modifiquen eh?
jaja, nosv emos che, cualqier cosa escribimanme.
chau
Suggest correction
Give kudos to tab author, rate the tab!
1 2 3 4 5
comments
print report bad tab
guest
Wanna post a correction for this tab? Suggest correction