Oops, an error
Loading. Please wait.

Nadie Cree En Mi Canción Tab

version 1
version 1

Whole song

31 views 1 this week
no commentswrite comment
1 2 3 4 5
3 more votes to show rating
add to favorites
launch autoscroll
font size
0
reset
how to read this tab
guitar tuner
×
Best way to learn
"Nadie Cree En Mi Canción"
Autoscroll
slow
fast
+/-
esc
set tempo
stop
Acá va el solo de nadie cree en mi canción y el rifeito del final
Pedido x muchos para q lo corrija
Cualquier duda o consulta e23g11t89@

Solo:
e|--------------------------------------------------------------------|
B|--------------------------------------------------------------------|
G|--------------------------------------------------------------------|X2
D|----5-7-5-5h7-5-5h7-5-7--7/9-7-9-7h9-7-5-5h7-5-5h7--5h7-5---5-5h7-5-|
A|-/7-------------------------------------------------------7---------|
E|--------------------------------------------------------------------|

e|----------|------------------------------------------------------|
B|----------|----15------------------------------15---15-----------|
G|----------|-14e---14br-12----------12------------14e--14br-12----|
D|-9e-9-7-5-|---------------14-12h14---14-12-14-----------------14-|
A|----------|------------------------------------------------------|
E|----------|------------------------------------------------------|

e|---------------------------------15/17-15-----15-17-17e-17-15--15---|
B|-----------------------15----------------15/17---------------17--17-|
G|-12-14br-12-14---12-14e--14br-12------------------------------------|
D|--------------------------------------------------------------------|
A|--------------------------------------------------------------------|
E|--------------------------------------------------------------------|

e|---15---15---15---15---15----------------0-|
B|-15--15e--15e--15e--15e--15h17-15--------1-|
G|---------------------------------16-14---0-|
D|-----------------------------------------2-|
A|-----------------------------------------3-|
E|-------------------------------------------|

El punteito del final del tema:
e|-----------------------|
B|-----------------------|
G|-----------------------|
D|-7br-5-5h7-5-----5...5-|
A|-------------7-5-------|
E|-----------------------|

Korneta no murió!!!

Gardelitos x favor traigan la Fiesta Sudaka a Olavarriaa

dedicado a pablito, lucas y nacho, amigos gardelianos
Suggest correction
Give kudos to tab author, rate the tab!
1 2 3 4 5
comments
print report bad tab
guest
You may want to rate the tab now too:
select rating
Wanna post a correction for this tab? Suggest correction