Oops, an error
Loading. Please wait.

Nadie Cree En Mi Canción Bass Tab

34 views 1 this week
no commentswrite comment
1 2 3 4 5
3 more votes to show rating
add to favorites
launch autoscroll
font size
0
reset
guitar tuner
Autoscroll
slow
fast
+/-
esc
set tempo
stop
Help us to improve Ultimate-Guitar.com Take our survey!
×
Intro:

G-----------|
D-----------|
A-----2-----|
E-3-------5-|


Las noches son largas?

G-------|-------|-------|----------|--------------|
D-------|---4---|--- ---|---5------|--------------|
A-------|-2---2-|-------|--------x2|--3/10-10-9---|
E-3-3-3-|-------|-5---5-|-3----3---|--------------| x2

Sola en el viento te anunciaras..
G-----------|-------------|
D-----------|-------------|
A--7-7-9/10-|-2-0-2/3-2/0-|
E-----------|-------------|x2

Y aunque no veas el sol en mi?

G-----------|--------------|---------------7------|
D--2-2--2---|--------------|-------------7---7----|
A-----------|3-3-3---------|-5-5-5-5-5-5-------5--|
E-----------|-------3-3-3--|----------------------|


Para hablarte de ?

G--------------|
D--------------|
A-----------5--|
E-5-5-3-3-3---3|x3

G--------------------|
D--------------------|
A-----3-3-3-3-5-5-5-5|
E-5-5----------------|

G-------------------------|------------7-----|
D-------------------------|----------7--7----|
A-3-3-3-------3-3-3-------|--5-5-5-5-------5-|
E-------3-3-3-------3-3-3-|------------------|

G--------------------|----------7---|----------|
D-----5----------5---|--------7---7-|----------|
A-3-3---3--3-3-3---3-|5-5-5-5-------|-3-3-3-3--|
E--------------------|--------------|----------|

G---------------|
D---------------|
A---------------|
E--0-3-5-7-5-3--|


Las Calles del Barrio te ven partir....?

G-------|-------|-------|----------|--------------|
D-------|---4---|--- ---|---5------|--------------|
A-------|-2---2-|-------|--------x2|--3/10-10-9---|
E-3-3-3-|-------|-5---5-|-3----3---|--------------| x2

Es Que nadie cree en mi cancion....
G-----------|-------------|
D-----------|-------------|
A--7-7-9/10-|-2-0-2/3-2/0-|
E-----------|-------------|x2

Todas estas mierdas me hacen pensar que dios me olvido
G-----------|--------------|---------------7------|
D--2-2--2---|--------------|-------------7---7----|
A-----------|3-3-3---------|-5-5-5-5-5-5-------5--|
E-----------|-------3-3-3--|----------------------|


Y por eso es que quiero abrir mi cuerpo..
G--------------|
D--------------|
A-----------5--|
E-5-5-3-3-3---3|x3

Donde nacee el viento de la libertad....
G--------------------|
D--------------------|
A-----3-3-3-3-5-5-5-5|
E-5-5----------------|

Uhhh Libertad siempree en libertad....
G------------------------|-------------7-----|
D------------------------|-----------7--7----|
A-3-3-3-------3-3-3------|---5-5-5-5-------5-|
E-------3-3-3-------3-3-3|-------------------|


G-------------------|-----------7---|----------|
D-----5----------5--|---------7---7-|----------|
A-3-3---3--3-3-3---3|-5-5-5-5-------|-3-3-3-3--|
E-------------------|---------------|----------|

G---------------|
D---------------|
A---------------|
E--0-3-5-7-5-3--|

Solo

G------------|----------|----------|
D------------|----------|----------|
A------------|-2-2-2-2-2|----------|x2
E-3-3-3-3-3-3|----------|-5-5-5-5-5|

G--------|------------------|-------------------|
D-5-4-2-0|--2-2-2-----4---X2|-2-2-2-------------|
A--------|--------2-2--2----|-------3-3-3-------|
E--------|------------------|-------------3--3-3|

|----------7------|
|--------7---7----|
|5-5-5-5-------5--|
|-----------------|

G-------------------|-----------7----|---------|
D-----5----------5--|---------7---7--|---------|
A-3-3---3--3-3-3---3|-5-5-5-5--------|3-3-3-3--|
E-------------------|----------------|---------|

G---------------|
D---------------|
A---------------|
E--0-3-5-7-5-3--|


Ya es tarde y la sombras cubrieron ya....?

G-------|-------|-------|----------|--------------|
D-------|---4---|--- ---|---5------|--------------|
A-------|-2---2-|-------|--------x2|--3/10-10-9---|
E-3-3-3-|-------|-5---5-|-3----3---|--------------| x2

Y sin darte cuenta amanecera.....
G-----------|-------------|
D-----------|-------------|
A--7-7-9/10-|-2-0-2/3-2/0-|
E-----------|-------------|x2

 Si no te arrepientes de mirar el sol....
G-----------|--------------|---------------7------|
D--2-2--2---|--------------|-------------7---7----|
A-----------|3-3-3---------|-5-5-5-5-5-5-------5--|
E-----------|-------3-3-3--|----------------------|


 Abriendo las puertas....
G--------------|
D--------------|
A-----------5--|
E-5-5-3-3-3---3|x3

 Como sopla el viento de la libertad
G--------------------|
D--------------------|
A-----3-3-3-3-5-5-5-5|
E-5-5----------------|

Uhhh Libertad siempree en libertad....
G-------------------------|------------7-----|
D-------------------------|----------7--7----|
A-3-3-3-------3-3-3-------|--5-5-5-5-------5-|
E-------3-3-3-------3-3-3-|------------------|

uoooohh shanibelaa laraaa laa laa!!
G-------------------|-----------7----|---------|
D-----5----------5--|---------7---7--|---------|
A-3-3---3--3-3-3---3|-5-5-5-5--------|3-3-3-3--|
E-------------------|----------------|---------|


estee temaa es muy bueno para hacerlo y no es complicadoo
 encuentrenle
el rimoo y salee bien piola...asi es como lo hace en vivo
espero que les siva!!!
Saludos Del Norte!!

los gardelitos mi manera de ser feliz
Suggest correction
Give kudos to tab author, rate the tab!
1 2 3 4 5
comments
print report bad tab
guest
You may want to rate the tab now too:
select rating
Wanna post a correction for this tab? Suggest correction