Oops, an error
Loading. Please wait.

Oxígeno Tab

version 3
version 3

Whole song

19 views 1 this week
no commentswrite comment
1 2 3 4 5
3 more votes to show rating
add to favorites
launch autoscroll
font size
0
reset
how to read this tab
guitar tuner
Autoscroll
slow
fast
+/-
esc
set tempo
stop
Help us to improve Ultimate-Guitar.com Take our survey!
×
Yo lo toco asi, le cambie algunas cosas nomas

e|----|----------------------------------------------|--
B|----|------------TODO-ESTO-DOS-VECES---------------|--
G|----|----------------------------------------------|--
D|----|---2p3h2--5-2-7----5--------------------------|--
A|-2--|----------3-0-5----3--5--8---3--5--7---7---7--|--
E|-0--|----------------------3--6---1--3--5---5---5--|--

e|--------------------------------------------------------------|--
B|--------------------------------------------------------------|--
G|--------------------------------------------------------------|--
D|-3--------|------PM-----|-3-------5---------5--------5--------|--
A|-1--3-5-5--5-5-5-5-5-5-5--1--3--5-3--5-7~---3-5-7~---3-5-7-7-7|--
E|----1-3-3--3-3-3-3-3-3-3-----1--3----3-5~-----3-5~-----3-5-5-5|--

esto va sobre esto: (D-A-A#  C-G-A)X2  Bb-C-D
G|----------------------------------------------------|--
D|----------------------------------------------------|--
A|-5--5--3h5h3---1--1-0-1--1-0-1-1h3--3--1h3h1---0----|--
E|-------------5-------------------------------3------|--

e|----------------------------------------------------|--
B|----------------------------------------------------|--
G|-7--7--5h7h5---3--3-2-3--3-2-3-3h5--5--3h5h3---2----|--
D|-------------7-------------------------------5------|--

e|---------------------------------|--
B|---------------------------------|--
G|-3--2-3--3-2-3-5--3-5--3-5-7-----|--
D|---------------------------------|--

Aca usa l base del comienzo
e|-------------------------------------------|----|--------|-
B|-5p6h5-------------------------------------|----|--------|-
G|-------5----5h7-5--------------------------|-X2-|--5h2---|-
D|----------7---------5/8---3--5--7---7-8-7--|----|------5-|-

e|-------------------------------------------------------|--
B|-3------------3-------5----------5----------5----------|--
G|-3------------3-------5----------5----------5----------|--
D|----3-5-3h5------3-5-----5-7--5h7---5-7--5h7---5-7-----|--

Esto va dos veces
G|--------------------------------------------------------|
D|---7-5-----3-----2----------7-5-----3-----2-2/5---------|
A|--8-8-7-5-7-5-3-5-5-3-5----8-8-7-5-7-5-3-5-5------------|
E|--------------------------------------------------------|

B|--------------------------------------------------------|
G|---7-5-----3-----2----------7-5-----3-----2-2/5---------|
D|--8-8-7-5-7-5-3-5-5-3-5----8-8-7-5-7-5-3-5-5------------|
A|--------------------------------------------------------|


e|---------------------------------|--
B|----------------------------10---|--
G|----------------------------12b--|--
D|-5-------3-3-----5-5--2~---------|--
A|-3----3--1-1--5--3-3--0~---------|--
E|------1-------3------------------|--

e|-------------------------------------------------------|-
B|-------------------------------------------------------|-
G|----------9-9h10-9-------9-10-10/12-12--10-12-12/14--14|-
D|-12-12--12---------12--12------------------------------|-

e|-------------------------------------|-
B|--15--15---11--11---13--13---8----10-|-
G|--17b-17b--13b-13b--15b-15b--10b--12b|-
D|-------------------------------------|-

e|-------------------------|-------------------------|-
B|-------DOS-VECES---------|--------UNA-VEZ----------|-
G|-------------------------|-------------------------|-
D|-7-7--5-7--------3-------|-5-5--3-5--------3-------|-
A|-5-5--3-5----3-5---5-3---|-3-3--1-3----3-5---5-3---|-
E|-----------5-----------5-|-----------5-----------5-|-

e|-------------------------|-
B|-------------------------|-
G|-------------------------|-
D|-3-3--2-3----------------|-
A|-1-1--0-1--0-1-0-3-0-4-0-|-
E|-------------------------|-

e|-----------------10--8-10--10--8--8-8-10-12--15b--15--17-15------
B|-----------------10--8-10-------10-------------------------17-15-
G|-12b-10------12b-------------------------------------------------
D|--------12-------------------------------------------------------

e|-----------------------------10-----------10-----------10----10--
B|-10-12-10-13h12h10---10h12h13--13-10h12h13--13-10h12h13--13--10--
G|-----------------------------------------------------------------
D|-----------------------------------------------------------------

e|-10---------------------------------------
B|-10-13--13-13-15-17--18--17--18-17----15--
G|-----------------------------------17-----
D|------------------------------------------

                                                           D
e|---------------------------------|-------------------------
B|---------------------------------|-----------------------3-
G|---------------------------------|-----------------------2-
D|---------------------------------|-----------------------0-
A|-0-1-0-3-0-4-0-5-0-1-0-3-0-4-0-5-|-00-11-00-33-00-44-00----
E|---------------------------------|-------------------------
Suggest correction
Give kudos to tab author, rate the tab!
1 2 3 4 5
comments
print report bad tab
guest
You may want to rate the tab now too:
select rating
Wanna post a correction for this tab? Suggest correction