Oops, an error
Loading. Please wait.

Puño Y Letra Chords

64 views 1 this week
no commentswrite comment
1 2 3 4 5
3 more votes to show rating
add to favorites
launch autoscroll
font size
0
reset
transpose
0
reset
simplify chords
display chords
guitar tuner
×
Best way to learn
"Puño Y Letra"
Autoscroll
slow
fast
+/-
esc
set tempo
stop
RIFF:

E|| 10-10-10-----------------------------|--------------------------------|
B|| ---------9-9-9-10-10-10-7-7-7-9-9-5-5|-7-7-7-4-4-4-5-5-5--------------|
G||.-------------------------------------|-------------------7-7-7--------|
D||.-------------------------------------|-------------------------4-4----|
A|| -------------------------------------|-----------------------------5-5|
E|| -------------------------------------|--------------------------------|

A5          A5           X2 !!
E|----------|------- ||
A|----------|------- ||
G|----------|-------.||
D|7--------|--------.||
A|7--------|-------- ||
E|5--------|-------- ||


intro

F  G  Am


Am                   Dm   G                   C
  Pasan los coches ligero   en el barrio del Abasto
                       E7                     Am
cualquiera se viene al pasto por seguir esa carrera
                F    E7                    Am
sin una meta certera   que justifiquen los gastos.


                     Dm  G                         C
Y tal vez valga recordar   la vida es nueva a cada paso
                 E7                       Am                     F
y no bajamos los brazos por cantar una cancion que salga del corazón
E7                     Am
  aunqe nos rompa en pedazos.

--------------------------------------
                        Dm
Y mientras tanto alzo mi voz al viento
    E                            Am
con la esperanza de llegar hasta vos
                      Dm
para decirte hoy todo lo que siento
    E                               Am
que es lo mismo que tal vez sientas vos.


Un nuevo sol se levanta con su melena de fuego
el pueblo suena despierto con la revolucion
y esta modesta cancion quisiera abrigar el sueño.

Como queres que no me meta si el mundo se ha vuelto loco
prefiero llegar de a poco al confín de su locura
traspasando su armadura con el puño y la letra.

-----------------------------------------

Y mientras tanto alzo mi voz al viento
con la esperanza de llegar hasta vos
para decirte hoy todo lo que siento
de puño y letra y con el corazón.


P/D: Prueben tocarlo como tango esta buenísimo. Lo saque de un video de
internet en vivo asi q si hay algún error no me di cuenta.
Suggest correction
Give kudos to tab author, rate the tab!
1 2 3 4 5
comments
print report bad tab
guest
You may want to rate the tab now too:
select rating
Wanna post a correction for this tab? Suggest correction