Oops, an error
Loading. Please wait.

Puño Y Letra Tab

85 views 6 this week
no commentswrite comment
1 2 3 4 5
3 more votes to show rating
add to favorites
launch autoscroll
font size
0
reset
how to read this tab
guitar tuner
×
Best way to learn
"Puño Y Letra"
Autoscroll
slow
fast
+/-
esc
set tempo
stop
g||-7-7-7----------------------------------------------------------
a||-------7-7-7-8-8-8-5-5-5-7-7-3-3-5-5-5-2-2-2-3-3-3-0-0-0-2-2-----0
e||-------------------------------------------------------------4-4-


d||-----------------------------------------------------------------------0
B||-10-10-10--------------------------------------------------------------1
G||----------9-9-9-10-10-10-7-7-7-9-9-5-5-7-7-7-4-4-4-5-5-5-2-2-2-4-4-1-1-2
D||-----------------------------------------------------------------------2


E||---5-7-8-7-------12-10------------10----------------------
B||-5---------6-5-6-------13-12---10----13-12-10--------------
G||-----------------------------12---------------12/14-14-14-14

E||---5-7-8-7-------12-10--------------
B||-5---------6-5-6-------13-12----10--
G||-----------------------------12-----

E||-10------------------------------1-1-1-3-1-0
B||----13-12-10----13-12-10-8-6-6-6-1----------
G||-------------12------------------1----------
D||---------------------------------2----------
A||---------------------------------2----------
E||---------------------------------1----------

rasguear Am de la siguiente forma antes de empezar a cantar
E||0-0-0-0-0-0-0-0-0-0-0-0-0-0-0-0-0-0-0
B||1-1-1-1-0-0-1-1-1-1-0-0-1-1-1-1-0-0-1
G||2-2-2-2-0-0-2-2-2-2-0-0-2-2-2-2-0-0-2
D||2-2-2-2-0-0-2-2-2-2-0-0-2-2-2-2-0-0-2
A||0-0-0-0-0-0-0-0-0-0-0-0-0-0-0-0-0-0-0
E||0-0-0-0-0-0-0-0-0-0-0-0-0-0-0-0-0-0-0

Am                   Dm   G                   C
  Pasan los coches ligero   en el barrio del Abasto
                       E7                     Am
cualquiera se viene al pasto por seguir esa carrera
                F    E                    Am
sin una meta certera   que justifiquen los gastos.


                     Dm  G                         C
Y tal vez valga recordarlo ,  la vida es nueva a cada paso
                 E7                       Am                     F
y no bajamos los brazos por cantar una cancion que salga del corazón
E                     Am
  aunque nos rompa en pedazos.

--------------------------------------
                        Dm
Y mientras tanto alzo mi voz al viento
    E                            Am
con la esperanza de llegar hasta vos
                      Dm
para decirte hoy todo lo que siento
    E                               Am
que es lo mismo que tal vez sientas vos.

  G     F   Am
Ooooh oooh oooh

  G     F   Am
ooooh oooh ooo

B||-----------------------1
G||-2---------------------2
D||--2-3-0-2---0----------2
A||----------3---2-3-0-2-0-
E||---------------------4--


Un nuevo sol se levanta con su melena de fuego
el pueblo suena despierto con la revolucion
y esta modesta cancion quisiera abrigar el sueño.

Como queres que no me meta si el mundo se ha vuelto loco
prefiero llegar de a poco al confín de su locura
traspasando su armadura con el puño y con la letra.

-----------------------------------------

Y mientras tanto alzo mi voz al viento
con la esperanza de llegar hasta vos
para decirte hoy todo lo que siento
que es lo mismo que tal vez sientas vos
Y mientras tanto alzo mi voz al viento
con la esperanza de llegar hasta vos
para decirte hoy todo lo que siento
de puño y letra y con el corazoon


E||-------------------------------------------------------------------------
B||-10-10-10----------------------------------------------------------------
G||----------9-9-9-10-10-10-7-7-7-9-9-5-5-7-7-7-4-4-4-5-5-5-2-2-2-4-4-1-1-2-
D||-------------------------------------------------------------------------
A||-------------------------------------------------------------------------
E||-------------------------------------------------------------------------

FINAL E,A 


espero que le guste el tema la rompen los gardeles CUALQUIER DUDA ESCRIBAN
Suggest correction
Give kudos to tab author, rate the tab!
1 2 3 4 5
comments
print report bad tab
guest
You may want to rate the tab now too:
select rating
Wanna post a correction for this tab? Suggest correction