Oops, an error
Loading. Please wait.

Serás Mi Mujer Tab

10 views 1 this week
no commentswrite comment
1 2 3 4 5
3 more votes to show rating
add to favorites
launch autoscroll
font size
0
reset
how to read this tab
guitar tuner
×
Best way to learn
"Serás Mi Mujer"
Autoscroll
slow
fast
+/-
esc
set tempo
stop
Hola gente! Me habia colgado un poko pero volvi jaja
Bueno aca les dejo seras mi mujer enterito, esta perfecto
Cualquier duda o consulta e23g11t89@

Intro:
E|-----------------------------------------------|--|---5-8-5--------|
B|-----------------------------------------------|--|----------------|
G|-----------------------------------------------|x2|-7e-----7br-5-7-|
D|----7-9e-9-9br-7---7-----------7-9e-9e-9-7---7-|--|----------------|
A|-7h9-------------9---9-7---7h9-------------9---|--|----------------|
E|-----------------------------------------------|--|----------------|
                               Aca va rapido!
e|----------------------------|---------5-|--|---------5-----5--|
B|----------------------------|-----5-7---|--|-----5-7---8-8----|
G|-7br-5---5-7---7br-5---5...-|-5-7-------|x3|-5-7--------------|
D|-------7-------------7------|-----------|--|------------------|
A|----------------------------|-----------|--|------------------|
E|----------------------------|-----------|--|------------------|

e|---------5---------------|
B|-----5-7---8-5-----------|
G|-5-7-----------7br-5---7-|
D|---------------------7---|
A|-------------------------|
E|-------------------------|

A5
Me estoy enamorando de ti otra vez  Riff 1

Puedo presentirlo en todo mi ser Riff2
D5
Con solo una mirada yo puedo ver Riff3
A5
Que apenas te lo pida seras mi mujer Riff4
E5                     D5                       A5
Estoy tan convencido q quiero estar contigo otra vez  Riff5


    Riff 1       Riff 2         Riff 3             Riff 4        Riff 5
e|---------|-------|--------5------------|----------|--------------------|
B|---------|-------|----5-7---8-5--------|----------|---5-4-3-2----------|
G|7br-5-5-7|-7e--7-|5-7-----------7br-7--|----------|----------------5-7-|
D|-----7---|-------|--------------------7|----------|-/5-4-3-2-1--/7-----|
A|---------|-------|---------------------|-6/7--6/7-|--------------------|
E|---------|-------|---------------------|-4/5--4/5-|--------------------|


Solo:

E|-----------------------------------------------|--|---5-8-5------------|
B|-----------------------------------------------|--|--------------------|
G|-----------------------------------------------|x2|-7e-----7br-5-7-7-5-|
D|----7-9e-9-9br-7---7-----------7-9e-9e-9-7---7-|--|--------------------|
A|-7h9-------------9---9-7---7h9-------------9---|--|--------------------|
E|-----------------------------------------------|--|--------------------|


e|-------------------5---------------5----5----5----5-----------|
B|----------------------------------5----5----5----5--5-7-5-----|
G|-7br-5---5----5-7e---7br-5-----7e----7e---7e---7e---------7-5-|
D|-------7---7---------------7----------------------------------|
A|--------------------------------------------------------------|
E|--------------------------------------------------------------|
                                       Varias veces!
                                         ____|_____
      Aca va rapido!!!                  |          |
e|---------5----------------|--------------------------|
B|-----5-7---8-5------------|------10-10------10-10----|
G|-5-7-----------7e-5---5-7-|-7/11-------9/11----------|
D|--------------------7-----|--------------------------|
A|--------------------------|--------------------------|
E|--------------------------|--------------------------|

e|----------12---12---12---12---12--------------------------------|
B|----10-12e--12e--12e--12e--12e-----12-10-10-10--10-12e-12e-12e--|
G|-11-------------------------------------------11----------------|
D|----------------------------------------------------------------|
A|----------------------------------------------------------------|
E|----------------------------------------------------------------|

e|----------12e-12----------12-11-10--10---------------------------|
B|-10101010-------10--10-10---------12--12-10----10-10h12-10----10-|
G|--------------------------------------------11-------------11----|
D|-----------------------------------------------------------------|
A|-----------------------------------------------------------------|
E|-----------------------------------------------------------------|

e|----10----9-----8----7-----5-------------------|
B|-----------------------------------------------|
G|-/10---9-9---8-8--7-7--5-5----7vibar la cuerda-|
D|-----------------------------------------------|
A|-----------------------------------------------|
E|-----------------------------------------------|

Este tab va para mi amigaso lucas gardeliano

Espero q lo disfruten chau

Korneta no murio, El vive y vivira x siempreeeeeeee!!!!!
Suggest correction
Give kudos to tab author, rate the tab!
1 2 3 4 5
comments
print report bad tab
guest
You may want to rate the tab now too:
select rating
Wanna post a correction for this tab? Suggest correction