Oops, an error
Loading. Please wait.

Sueños De Metal Tab

16 views 1 this week
no commentswrite comment
1 2 3 4 5
3 more votes to show rating
add to favorites
launch autoscroll
font size
0
reset
how to read this tab
guitar tuner
×
Best way to learn
"Sueños De Metal"
Autoscroll
slow
fast
+/-
esc
set tempo
stop
INTRODUCCION

e------------------(Repite varias veces)
b------------------
g------------------
d-2--2-2-2--2-2-2--
a-0--0-3-0--0-3-0--
E------------------

(nota: la nota sobre el traste 3, do: esta ligada, para q suene igual)

e-------------------------------------
b-------------------------------------
g-------------------------------------
d-------------------------------------
a--2-2--2-2--2-2--2-2--2-2--2-2--2-2--
E--0-0--0-0--0-0--0-3--0-0--0-0--0-0--

e--------5---5--------3---3--------1---1--------0----0-
b------5---5--------3---3--------1---1--------1----1---
g----5------------4------------2------------2----------
d--3------------2------------0-------------------------
a-----------------------------------------0------------
E------------------------------------------------------

VERSO 0 CANTO

(Siempre con arpegios)


e--------5----------3--------1----0--
b------5----------3--------1------1-- (lam)
g----5----------4--------2--------2--
d--3----------2--------0----------2--
a------------------------------------
E------------------------------------

(Lo de arriba hace mientras canta el verso por primera vez)

(Los acordes de abajo son exactamente los mismos que arriba pero
tocados en notas mas agudas, y los toca mientras repite el verso)

FAmaj7 - MIM7 - REM7 - LAm7 (tocar preferentemente con sejilla)

(estos acordes aparecen en el glosario de esta pagina)

Las máquinas duermen su sueño de metal
y pájaros cibernéticos invaden la ciudad
Miles de robots en las playas de Uranio
hacia el sur...
del otro lado de la bahía
descansan los restos atómicos del mundo
LA madre computadora
registra los sentimientos en una pantalla
El corazón del hombre es
apenas un circuito integrado

aca cambia los acordes:
son:

FA5 - SOL5 - LA5

apenas un circuito integrado!

FaM - Mim - Re5 - La5

PUNTEO

sobre esta base:

FA5 - SOL5 - LA5 - FA  - MIm - RE5 - LA5 (2 veces)

FA5 - SOL5 - LA5 (5 veces)

(Despues repite todo exactamente igual)

El espíritu del Dr. Frankenstein
Ilumina el cerebro
de los ingenieros
que tratan de construir
ciudades eternas
y permanentes
selvas de plomo y detergentes
selvas de plomo y detergentes!


Saludos a los chicos de Rio Segundo CBA, AGuanten los gardeles
Suggest correction
Give kudos to tab author, rate the tab!
1 2 3 4 5
comments
print report bad tab
guest
You may want to rate the tab now too:
select rating
Wanna post a correction for this tab? Suggest correction