Oops, an error
Loading. Please wait.

Volveré En Tus Ojos Tab

version 2
version 2

Whole song

11 views 1 this week
no commentswrite comment
1 2 3 4 5
3 more votes to show rating
add to favorites
launch autoscroll
font size
0
reset
how to read this tab
guitar tuner
Autoscroll
slow
fast
+/-
esc
set tempo
stop
Help us to improve Ultimate-Guitar.com Take our survey!
×
Punteo Intro

1|----------------------------------------------------------------------------------------------|
2|----------------------------------------------------------------------------------------------|
3|----------------------------------------------------------------------------------------------|
4|----------------------------------------------------------------------------------------------|
5|----------------------------------------------------------------------------------------------|
6|-0h2--2-2-2-5-5-5-2---0h2--2-2-2-5-5-5-2---0h2--2-2-2-5-5-5-2---0h2--2-2-2--9-8-7--2-2--------|

vamos a tocar una chacarera para los Criollos!

1|----------------------------------------------------------------------------------------------|
2|-9-11-12--11-9-----------------12-11-9-------9--11-12--11-9-----------------12-11-9-----------|
3|---------------11-9--9-8-9-8-9---------8-8------------------11-9--9-8-9-8-9---------8-8-------|
4|----------------------------------------------------------------------------------------------|
5|----------------------------------------------------------------------------------------------|
6|----------------------------------------------------------------------------------------------|
*Estirar la cuerda
1|----------------------------------------------------------------------------------------------|
2|----------------------5----------------9-11-12--11-9-----------------12-11-9------------------|
3|-5*-5*-3---3-5-3-5-5*---5-3---------------------------11-9--9-8-9-8-9---------8-8-------------|
4|---------5------------------5-----------------------------------------------------------------|
5|----------------------------------------------------------------------------------------------|
6|----------------------------------------------------------------------------------------------|

1|-------------------------------------------------------------------------------14*12*10-------|
2|-9-11-12-11-9--14-12-14-12-14-12-12-14-12-14--16-16--14*-14*-12-------12-14-12---------12-12--|
3|----------------------------------------------------------------13-13-------------------------|
4|----------------------------------------------------------------------------------------------|
5|----------------------------------------------------------------------------------------------|
6|----------------------------------------------------------------------------------------------|


1|----------------------------------------------------------------------------------------------|
2|-5-5-5-5-5--2-0-2--2/5-2-0-2-0-2-----5-5-5-5-5--2-0-2--2/5-2-0-2-0-2--------------------------|
3|----------------------------------------------------------------------------------------------|
4|----------------------------------------------------------------------------------------------|
5|----------------------------------------------------------------------------------------------|
6|----------------------------------------------------------------------------------------------|


1|----------------------------------------------------------------------------------------------|
2|-5/9--9-9-9-9-10-10-9-10-9-12-10-9-7-7----5/9--9-9-9-9-10-10-9-10-9---6--9-10-9-7-7-----------|
3|--------------------------------------------------------------------6-------------------------|
4|----------------------------------------------------------------------------------------------|
5|----------------------------------------------------------------------------------------------|
6|----------------------------------------------------------------------------------------------|


F#m               Bm
El dia que yo me muera 
E                  A 
No quiero ir al cielo
F#m               SIm
Quiero quedarme cerca
E                  A
Para ser tu consuelo


Bm               A
Y con tu boca fresca,
             E            A            
mi negra volveré a cantarte, 
Bm               A
Y con tus ojos negros, 
             E            A 
mi negra volveré a mirarte.

 
F#m               Bm
No dejare que la lluvia 
E                  A 
vuelva a mojar tu cara, 
F#m               SIm
Volveré siempre en sueños 
E                  A
Siempre seré tu dueño.


Bm               A
Y con tu boca fresca
             E            A    
mi negra volveré a cantarte, 
Bm               A
Y con tus ojos negros, 
             E            A 
mi negra volveré a mirarte.


1|----------------------------------------------------------------------------------------------|
2|-9-11-12--11-9-----------------12-11-9-------9--11-12--11-9-----------------12-11-9-----------|
3|---------------11-9--9-8-9-8-9---------8-8------------------11-9--9-8-9-8-9---------8-8-------|
4|----------------------------------------------------------------------------------------------|
5|----------------------------------------------------------------------------------------------|
6|----------------------------------------------------------------------------------------------|

*Estirar la cuerda
1|-----------------------------------|x2
2|----------------------5------------|
3|-5*-5*-3---3-5-3-5-5*---5-3--------|
4|---------5------------------5-5----|
5|-----------------------------------|
6|-----------------------------------|


F#m               Bm
El dia que yo me muera 
E                  A 
No quiero ir al cielo
F#m               SIm
Quiero quedarme cerca
E                  A
Para ser tu consuelo


Bm               A
Y con tu boca fresca,
             E            A            
mi negra volveré a cantarte, 
Bm               A
Y con tus ojos negros, 
             E            A 
mi negra volveré a mirarte.


Espero que les sirva!! Saludos a todos mis amigos de Rio Grande
Tierra del Fuego desde Rosario!! Si tenes alguna correccion mandala a mi mail.....
Saludos para Rodrigo.T, Gaston.E(la Plata)Karina.C,Nico.R,Emma.E,Franco.T,Laura.A.
Gardelitos por favor Vuelvan a Rosario!!
Suggest correction
Give kudos to tab author, rate the tab!
1 2 3 4 5
comments
print report bad tab
guest
You may want to rate the tab now too:
select rating
Wanna post a correction for this tab? Suggest correction