Oops, an error
Loading. Please wait.

Volveré En Tus Ojos Tab

version 3
version 3

Whole song

13 views 3 this week
no commentswrite comment
1 2 3 4 5
3 more votes to show rating
add to favorites
launch autoscroll
font size
0
reset
how to read this tab
guitar tuner
×
Best way to learn
"Volveré En Tus Ojos"
Autoscroll
slow
fast
+/-
esc
set tempo
stop
Los Gardelitos - Volveré en tus ojos
Korneta Suarez - Gardeliando
Este es el punteo de la canción.
Cualquier duda aquí les dejo mi e-mail: martin_akd1@

Intro:
Bajo:
E/--2-2-2-2-2-5-5-5-5-5- se repita varias veces
                         hasta que empieza el punteo

B/--7-9-10-9-7---------------10-9-7-----
G/-------------9-7--7-7-7-6-6------6----  BIS

------------------------------------------------
Esta parte no es igual a la canción pero yo la toco así:
B/-----------------------7-5----------
G/-4h6-6-4-6-4---4-6-4-4-----6-4------
D/------------7-7----------------7-4-

------------------------------------------------

e/--------------------------------------------------
B/--7-9-10-9-7---------------10-9-7------7-9-10-9-7-
G/-------------9-7--7-7-7-6-6------6----------------

e/----------------------------------------------------
B/-12-10-10-10-12-10-10-12-10-12-12s14---12s14-14-12--
G/----------------------------------------------------

e/-----------------------14---------------------------
B/-12-10--10-10-12-10-10---14-12-10-9-7---------------
G/----------------------------------------------------


--------------------------------------------------

B/-2h4-4-4-4-4-4-2-0-2-0-0-4-4-2-2-0----------
G/-----------------------------------2-2-4-6--
D/---------------------------------------------

B/-7s9-9-9-9-9-9s10-10-10-10-10--12-12-12-10-9-7-
G/-----------------------------------------------

B/-7s9-9-9-9-9-9s10-10-10-10-10---7-10-9-7-7-----
G/------------------------------6----------------


Bueno, esta es una versión simple de tocar de la intro completa, 
espero que les sirva y la entiendan. Cualquier duda escríbanme a martin_akd1@ 
prometo que más adelante voy a mandar los demás punteos del tema.

Martín

Korneta vive!!!!!
Suggest correction
Give kudos to tab author, rate the tab!
1 2 3 4 5
comments
print report bad tab
guest
You may want to rate the tab now too:
select rating
Wanna post a correction for this tab? Suggest correction