Oops, an error
Loading. Please wait.

Volveré En Tus Ojos Tab

version 4
version 4

Whole song

19 views 1 this week
no commentswrite comment
1 2 3 4 5
3 more votes to show rating
add to favorites
×
Save as Personal and add changes to this tab that will be seen only by you. Learn more ›
×
You can save this tab as Personal to edit and correct it or add notes. All changes will be seen only by you. Learn more »
save as personal
new!
launch autoscroll
font size
0
reset
how to read this tab
guitar tuner
Autoscroll
slow
fast
+/-
esc
set tempo
stop
bueno aca esta la correccion del tema ya que como lo habia
sacado antes estaba para atras este me parece que esta mucho
mejor y completo, por cualquier duda pueden contactarme a
panchote_14@ suerte y aguanten los gardeles

Intro: (E5-F#5-F#5-E5-F#5-F#5-A5-A5-A5-F#5) x4


E--------------------------------------------|----|
A--------------------------------------------|----|
D--------------------------------------------|----|
G------------9~-7~--7-6-7-6-7--------6~-6~/0-|-x2-|
B-7-9-10-9-7------------------10-9-7---------|----|
e--------------------------------------------|----|

E------------------------------------------------------
A-------------9----------------------------------------
D---9b-9br p7---7-7-9-7-9---------9-7-7----------------
G-6-----------------------6b---6r----------------------
B----------------------------7-------------------------
e------------------------------------------------------

E------------------------------------------------------
A------------------------------------------------------
D------------------------------------------------------
G------------9~-7~-7-6-7-6-7--------6~-6~/0------------
B-7-9-10-9-7-----------------10-9-7----------7-9-10-9-7
e------------------------------------------------------

E------------------------------------------------------
A------------------------------------------------------
D------------------------------------------------------
G------------------------------------------------------
B-10/12-10--10-9-10-9-10-10/12--10-12------------------
e-------------------------------------/9~-9~--7-8b-8b--

E------------------------------------------------------
A------------------------------------------------------
D------------------------------------------------------
G------------------------------------------------------
B---10-9-7--10-10-12-10-12--------12-10-10/------------
e-7------------------------12br-9----------------------

E---------------------------------------------|----|
A-------------------------------------12------|----|
D--------------11p9-11p9--------11--9----9-11-|----|
G-/9-9-9-9-9-9-----------/9-9-9---------------|-X2-|
B---------------------------------------------|----|
e---------------------------------------------|----|

E------------------------------------------------------
A------------------------------------------------------
D------------------------------------------------------
G-------------------------------------------11-11-11-11
B-/9-9-9-9-9-9/10-10-9-10-9-10-10/12-10-9-9------------
e------------------------------------------------------

E------------------------------------------------------
A------------------------------------------------------
D------------------------------11----------------------
G---------------------------------11------11-----------
B-/9-9-9-9-9-9/10-10-9-10-9-10-------10-9--------------
e------------------------------------------------------


F#m               Bm    E               A
El dia que yo me muera no quiero ir al cielo
F#m               Bm    E             A
quiero quedarme cerca para ser tu consuelo.

Bm              A               E           F#m
Y con tu boca fresca, mi negra volvere a cantarte.
Bm              A                E          F#m
Y con tus ojos negros, mi negra volvere a mirarte.

F#m               Bm     E                A
No dejare que la lluvia vuelva a mojar tu cara.
F#m                 Bm     E               A
Volvere siempre en sueños siempre sere tu dueño.

Bm              A               E           F#m
Y con tu boca fresca, mi negra volvere a cantarte.
Bm              A                E          F#m
Y con tus ojos negros, mi negra volvere a mirarte.

(E - A) X4
Larailaila...

(E - A - Bm - A - F#m) X2

Empieza con un delay, que no entiendo bien pero
Esto suena bien

E------------------------------------------------------
A------------------------------------------------------
D-2h4-4----------------4-------------------------------
G-------1-1-2-2-2-2p1----2-2-2-4-4-4-------------------
B------------------------------------2--2-5-5/7--7-7-7-
e------------------------------------------------------

E------------------------------------------------------
A------------------------------------------------------
D------------------------------------------------------
G-------6-----------------6----------------------------
B-----5---5-7--7-----7--5---5-7--7-7---7---------------
e-5-4------------5-4-----------------5-----------------

E---------------------------------------|-----|
A---------------------------------------|-----|
D---------------------------------------|-----|
G---------------------------------------|-X2--|
B-9-9-9-7-9--5-5-5-5-5--9-9-9-7-5-5/2-2-|-----|
e-9-9-9-7-9--5-5-5-5-5--9-9-9-7-5-----2-|-----|

E-4/5/7/9---
A-----------
D-6/7/9/11--
G-----------
B-----------
e-----------

E----------------------------------------|----|--------
A----------------------------------------|----|--------
D----------------------------------------|----|--------
G------------9~-7~-7-6-7-6-7--------6~-6~|-X2-|--------
B-7-9-10-9-7-----------------10-9-7------|----|--------
e----------------------------------------|----|--------

E------------------------------------------------------
A-------------9----------------------------------------
D---9b-9br p7---7-7-9-7-9---------9-7------------------
G-6-----------------------6b---6r----------------------
B----------------------------7-------------------------
e------------------------------------------------------

E------------------------------------------------------
A-------------9----------------------------------------
D---9b-9br p7---7-7-9-7-9---------9-7------------------
G-6-----------------------6---9-6----------------------
B---------------------------7--------------------------
e------------------------------------------------------

F#m               Bm    E               A
El dia que yo me muera no quiero ir al cielo
F#m               Bm    E             A
quiero quedarme cerca para ser tu consuelo.

Bm              A               E           F#m
Y con tu boca fresca, mi negra volvere a cantarte.
Bm              A                E          F#m
Y con tus ojos negros, mi negra volvere a mirarte.

F#m               Bm     E                A
No dejare que la lluvia vuelva a mojar tu cara.
F#m                 Bm     E               A
Volvere siempre en sueños siempre sere tu dueño.

Bm              A               E           F#m
Y con tu boca fresca, mi negra volvere a cantarte.
Bm              A                E          F#m
Y con tus ojos negros, mi negra volvere a mirarte.

(E - A) X4
Larailaila...

(E - A - Bm - A - F#m) X2

fin
Suggest correction
Give kudos to tab author, rate the tab!
1 2 3 4 5
comments
print report bad tab
guest
Wanna post a correction for this tab? Suggest correction