Oops, an error
Loading. Please wait.

Vudú Bass Tab

version 1
version 1

Whole song

Interactive

35 views 1 this week
no commentswrite comment
1 2 3 4 5
3 more votes to show rating
add to favorites
launch autoscroll
font size
0
reset
guitar tuner
×
Best way to learn
"Vudú"
Autoscroll
slow
fast
+/-
esc
set tempo
stop
               hey!!!!!!!!!!!!!!!!!
aqui la letrina omar sergio diego y david traen para ustedes 
este rolonon espero que les guste

intro
g----------------------------------------------
d----------------------------------------------
a-----------3-3-3-3-3-3------------------------
e1-1-1-1-1-1-----------5-5-5-5-5-5-6-6-6-6-6-6-

todo sigue este proceso hasta que empieza a cantar esta parte:
bajo tres metros tierra estoy pero aun asi escuche tu voz
decir
g----------------------------------------------------------------------------------
d----------------------------------------------------------------------------------
a------------------3-3-3-3-3-3-3-3-3-----------------------------------------------
e-1-1-1-1-1-1-1-1-1-----------------5-5-5-5-5-5-5-5-5-6-6-6-6-6-6-8-8-8-8-8-8-8-8-8
tres velas negras prendere...
g-----------------------------------------------
d-----------------------------------------------
a-----------3-3-3-3-3-3-------------------------
e1-1-1-1-1-1------------5-5-5-5-5-5-6-6-6-6-6-6-

bueno asi va toda la cancion espero que les guste que la 
disfruten les recomendamos escuchar mucho la rola para 
adoptarla mejor ahi esta nuestro mail para lo que se les 
ofresca !viva el punky mexico cabrones no escuchen porquerias
esta cancion va dedicada a quien corresponda........
Suggest correction
Give kudos to tab author, rate the tab!
1 2 3 4 5
comments
print report bad tab
guest
You may want to rate the tab now too:
select rating
Wanna post a correction for this tab? Suggest correction