Oops, an error
Loading. Please wait.

Si Tú Te Vas Tab

71 views 1 this week
no commentswrite comment
1 2 3 4 5
3 more votes to show rating
add to favorites
launch autoscroll
font size
0
reset
how to read this tab
guitar tuner
Autoscroll
slow
fast
+/-
esc
set tempo
stop
Help us to improve Ultimate-Guitar.com Take our survey!
×
____________________________________________________
|                                                    |
|                   L E E  E S T O                   |
|____________________________________________________|
|                                                    |
| Antes de copiar esta transcripción a un archivo    |
| de texto, debes seleccionar la fuente tipográfica  |
|  COURIER NEW  o LUCIDA CONSOLE ,  así no se te     |
| moverán los acordes ni los punteos de su posición  |
| original y podrás tocar la canción correctamente.  |
|____________________________________________________|


          ******************************
        **********************************
       ******  NO DEJES DE QUERERME  ******
      *********** GARRAS DE AMOR ***********
       *****(Versión en Tono Original)*****
         ********************************
          ******************************

=INTRO= (1ª Parte, punteo en guitarra)
      DO                     LAm
E---------------------- ---------------------
B---------------------- ---------------------
G------0-0---------0--- ------2-2--------2---
D---0-2----2--0-0-2-2-- ---0-2---2--0-0-2-2--
A--3-----------3------- --3----------3-------
E---------------------- ---------------------
        ('¡Se viene Garras... De Amor!')

    FA         REm           SOL
E---------------------- --------------
B--1-1------1-1-1------ --1-1-1-0-0---
G-----2-0--------2-0--- ---------2----
D--------3----------3-- --------------
A---------------------- --------------
E---------------------- --------------

=INTRO= (2ª Parte, punteo en guitarra)
          DO                            LAm
E------------------------------- ---------------------------
B------------------------------- -------10-10----------10---
G-------9-12-12-9--------9-12-9- ------9-----9--------9--9--
D--10-12---------12-10-12------- -10-12-------12-10-12------
A------------------------------- ---------------------------
E------------------------------- ---------------------------

      FA                REm
E-----------------------------------
B--13-13-10-------13-13-13-10-------
G----------12-10-------------12-10--
D-----------------------------------
A-----------------------------------
E-----------------------------------

         SOL
E---------------------12-10-10--
B--13-13-13-12-10-12------------
G-------------------------------
D-------------------------------
A-------------------------------
E-------------------------------

=Estrofa=
DO                         SOL           LAm
  AUNQUE DEJES DE QUERERME... VOY A INTENTARLO,
FA                               MIm        MI
  SÓLO DAME UN MINUTO, DEJA EXPLICARTE...
LAm                   LAm
  SÉ QUE TÚ ME DEJARÁS, SÉ QUE NO REGRESARÁS,
  FA           REm SOL
  DAME UNA OPORTUNIDAD...

=CORO=
     DO                  LAm
  SI TÚ TE VAS... DEJAS HERIDAS EN MI CORAZÓN,
     FA        REm             SOL
  SI TÚ TE VAS... TÚ PIEL Y MI PIEL JAMÁS SE TOCARÁN,
     DO                           LAm
  SI TÚ TE VAS... LA LUNA Y LAS ESTRELLAS SI SE APAGARÁN,
     FA        REm               SOL
  SI TÚ TE VAS... TU AROMA Y TU AMOR SE MARCHARÁN...

=INTRO= 1ª y 2ª Partes
=Estrofa=
=CORO=

=PUENTE instrumental= (Punteo en Guitarra)

      LAm            MIm
E--8-7------------- -------------
B-----10-10-10-10-- --8-8-8-8-8--
G----------9--9---- ---------9---
D------------------ -------------
A------------------ -------------
E------------------ -------------

       FA                     SOL
E-----------------7-8-- --8-12-12-10-10-8-10--
B----8-10-10-10-10----- ----------------------
G--10------------------ ----------------------
D---------------------- ----------------------
A---------------------- ----------------------
E---------------------- ----------------------

        LAm                MIm
E--12-10-----------10---- ---------------------
B-------13-13-10-13--13-- --12-12-12-12-13-12--
G------------------------ ---------------------
D------------------------ ---------------------
A------------------------ ---------------------
E------------------------ ---------------------
                  '...nunca dejes de quererme mi amor'

       FA                      SOL
E-----------------7-8-- --8-12-12-10-10-8-10--
B----8-10-10-10-10----- ----------------------
G--10------------------ ----------------------
D---------------------- ----------------------
A---------------------- ----------------------
E---------------------- ----------------------

=Cambio de tono= (Sube 1 Tono)
   SOL         LA
E----------- -------9--
B----10-12-- --10-12---
G--12------- ----------
D----------- ----------
A----------- ----------
E----------- ----------

=CORO=
     RE                   SIm
  SI TÚ TE VAS... DEJAS HERIDAS EN MI CORAZÓN,
     SOL       MIm             LA
  SI TÚ TE VAS... TÚ PIEL Y MI PIEL JAMÁS SE TOCARÁN,
     RE                           SIm
  SI TÚ TE VAS... LA LUNA Y LAS ESTRELLAS SI SE APAGARÁN,
     SOL       MIm               LA
  SI TÚ TE VAS... TU AROMA Y TU AMOR SE MARCHARÁN...

     RE              SIm
  SI TÚ TE VAS... SI TÚ TE VAS...
   SOL MIm    LA
  IEHEHEH...  NANANANAAAH...

   RE                          SIm
E--5-2-3-2-5-2-3-2-5-2-3-2-5------------------------
B--7---------------------------3-0-2-3-0-2-3-0-2-3--
G--7---------------------------4-----------------4--
D------------------------------4--------------------
A---------------------------------------------------
E---------------------------------------------------

  SOL              LA
E------------------------------
B---3-3--3-3-3-3----5-5--5-5---
G--4-4--4-4-4-4----6-6--6-6-6--
D--5------5--------7------7----
A------------------------------
E------------------------------

LA   LA    RE
  SI TÚ TE VAAAAAS...

----------------------- FIN -----------------------
  _______________________________________________
 |                                               |
 | Aquí te van algunas indicaciones básicas para |
 | tocar la canción:                             |
 |_______________________________________________|
 |                                               |
 | Para que el tema suene la raja te recomiendo  |
 | ejecutar el acorde y los cambios de  acorde   |
 | en el mismo momento en que aparecen,por eso   |
 | logré que la ubicación de cada acorde sea la  |
 | precisa, tal como puse los acordes sobre cada |
 | sílaba de verso y sobre cada punteo, así te   |
 | será más fácil ubicar el acento musical y     |
 | además, obtendrás melodía y armonía similares |
 | A LA versión original de los Garras De Amor,  |
 | disfrútala.                                   |
 |_______________________________________________|
  _______________________
 |                       |
 |       C L A V E       |   CUERDAS de la GUITARRA:
 | Universal - Americana |   E   A   D   G   B   E
 |                       |   |   |   |   |   |   |
 | DO  =============== C |   MI  LA  RE  SOL SI  MI
 | RE  =============== D | Grave                Agudo
 | MI  =============== E |
 | FA  =============== F |
 | Sol =============== G |
 | LA  =============== A |
 | SI  =============== B |
 |_______________________|

 (Acorde)    (Cuerdas)
    |       E A D G B E  Los números corresponden al
    |       | | | | | |  traste de la guitarra donde
    |       | | | | | |  se pulsa la cuerda señalada,
    |       | | | | | |  la letra'X'significa que no
    |       | | | | | |  se pulsa la cuerda indicada.
    |       | | | | | |
    Do   :  X 3 2 0 1 0  ( Do Mayor )
    Re   :  X X 0 2 3 2  ( Re Mayor )
    Rem  :  X X 0 2 3 1  ( Re menor )
    Mi   :  0 2 2 1 0 0  ( Mi Mayor )
    Mim  :  0 2 2 0 0 0  ( Mi menor )
    Fa   :  1 3 3 2 1 1  ( Fa Mayor )
    Sol  :  3 2 0 0 0 3  ( Sol Mayor )
    La   :  X 0 2 2 2 0  ( La Mayor )
    Lam  :  X 0 2 2 1 0  ( La menor )
    Sim  :  X 2 4 4 3 2  ( Si menor )

 Hola me llamo es Rodrigo, soy chileno y soy un baladista
aficionado, espero que te guste esta transcripción de este
tema que es el primero que me gustó de Garras, los acordes
están en tono original y la canción va dedicada a todos
los fanáticos y a todas las "chicas solteras" fanáticas
que "gozan y bailan" con Garras de Amor...  por cualquier
pregunta, mi correo es 'rodrymicky@
Un saludo para Marco, Joc, Simón, Yoi, Maluto, Jonathan y
un besito para mi novia que se llama Karen, que la amo, y
un fuerte abrazo para Diego Rodríguez, vocalista de Garras
a quien admiro mucho artísticamente.

                   ¡¡¡AGUANTE GARRAS!!!


 +EN MEMORIA DE MI HERMANITA ANDREA SUSANA MUÑOZ ALARCÓN+
         (*Abril 20,1989 - Diciembre 10,2004+)
    "Que el Señor te tenga en su gloria hermanita mía"

                "Que el Señor les Bendiga"

NOVIEMBRE, 2005                     ...El último romántico
=====================
Suggest correction
Give kudos to tab author, rate the tab!
1 2 3 4 5
comments
print report bad tab
guest
You may want to rate the tab now too:
select rating
Wanna post a correction for this tab? Suggest correction