Oops, an error
Loading. Please wait.

Dejenme Solo Tab

19 views 1 this week
no commentswrite comment
1 2 3 4 5
3 more votes to show rating
add to favorites
launch autoscroll
font size
0
reset
how to read this tab
guitar tuner
Autoscroll
slow
fast
+/-
esc
set tempo
stop
Help us to improve Ultimate-Guitar.com Take our survey!
×
e ----------------------------------------------------------
b ----------------------------------------------------------
g --------------------------------------------------7-------
d ---0--9-10-9-10-9-0-----0--9-10-9-10-9----------
a ----------------------------------------------------------
E ----------------------------------------------------------   X2


e ----------------------------------------------------------
b ----------------------------------------------------------
g ---------------12-----12-12-12--11-9-11h12-11--
d ----9-10-12--------------------------------------------
a ----------------------------------------------------------
E ----------------------------------------------------------


e ----------------------------------------------------------
b ----------------------------------------------------------
g ---------------9-----9-9-9--8-6-8h9-8---------------
d ----9-10-12--------------------------------------------
a ----------------------------------------------------------
E ----------------------------------------------------------


e ----------------------------------------------------------
b ----------------------------------------------------------
g ---------------12-----12-12-12--11-9-11h12-11--
d ----12-10-9--------------------------------------------
a ----------------------------------------------------------
E ----------------------------------------------------------

e ----------------------------------------------------------
b ----------------------------------------------------------
g ---------------9-----9-9-9--8-6-8h9-8---------------
d ----9-10-12--------------------------------------------
a ----------------------------------------------------------
E ----------------------------------------------------------

(1)
G                          Em
Dejenme solo que triste estoy,
         C             D
nada consuela mi corazón

(1)
Dejenme solo con mi dolor,
dejenme solo hoy por favor

(Golpes)
D Em Em D

(2)
Em                     D
Ella se fue lejos de mi,
C         D            G
ella se fue quiero morir,
Em                     D
ella se fue con otro amor,
C          D           G
dejen que llore su desamor

Em D

(NO PUEDO MÁS VIVIR SIN TI NEGRA...)

G D Em G / G D Em G

(1)
Dejenme solo vayanse ya,
comprenderían mi soledad

(1)
Dejenme solo quiero pensar
asi a solas en realidad

(2)
Ella se fue lejos de mi,
ella se fue quiero morir,
ella se fue con otro amor,
dejen que llore su desamor

(2)
Ella se fue lejos de mi,
ella se fue lejos de aqui,
ella se fue,con otro amor,
dejen que llore
y solo estoy.

G D Em G
Suggest correction
Give kudos to tab author, rate the tab!
1 2 3 4 5
comments
print report bad tab
guest
You may want to rate the tab now too:
select rating
Wanna post a correction for this tab? Suggest correction