Oops, an error
Loading. Please wait.

Eres Tú Tab

128 views 1 this week
no commentswrite comment
1 2 3 4 5
3 more votes to show rating
add to favorites
launch autoscroll
font size
0
reset
how to read this tab
guitar tuner
Autoscroll
slow
fast
+/-
esc
set tempo
stop
Help us to improve Ultimate-Guitar.com Take our survey!
×
Gatillazo - Eres tú


  Intro guitarra 1:

e|-----3-3-3-3-3-3-3-3----- |-----------------------------------------
B|---------------------3v-- |-----------------------------------------
G|------------------------- |----------5-4v----------5-4v------------
D|------------------------- |-----5-5--------5--5-5------------------- X2
A|------------------------- |-----------------------------------------
E|------------------------- |-----------------------------------------

e|--------------------------------------------------------------------
B|--------------------------------------------------------------------
G|-------5-4-5-4-5-7---5-4-5-4-5-7------5-4---------------------------
D|---5---------------5--------------5-5-----5-5v----------------------
A|--------------------------------------------------------------------
E|--------------------------------------------------------------------

  Estrofa 1:
     G
    Una llamada perdida, un mensaje recibido

     F                              G
    Un e-mail en la pantalla, algo así eres tú.


     G
    Un esclavo voluntario de las modas más idiotas.

     F                               G
    Como un mando a distancia, algo así eres tú.

  Estribillo:
      A          C       G                 F/G
    Pero no me importa, no entro a valorar tu capacidad
e|----------------------------------------------------------------------
B|------10----13-12-10------10----13-12-10------------------------------
G|--12-----12-----------12-----12---------------------------------------
D|----------------------------------------------------------------------
A|----------------------------------------------------------------------
E|----------------------------------------------------------------------

      A            C      D
     Porque yo te quiero por tu personalidad.
e|----------------------------------------------------------------------
B|------10----13-12-10------10----13-12-10------------------------------
G|--12-----12-----------12-----12---------------------------------------
D|----------------------------------------------------------------------
A|----------------------------------------------------------------------
E|----------------------------------------------------------------------

e|----------------------------------------------------------------------
B|----------------------------------------------------------------------
G|----------5-4v----------5-4v-----------5-4v----------12v--------------
D|-----5-5--------5--5-5----------5--5-5--------------------------------
A|----------------------------------------------------------------------
E|----------------------------------------------------------------------

  Estrofa 2:

     G
    Un imbécil al volante de un cerebro tuneao

     F                   G
    todo carrocería, algo así eres tú

     G
    Una persona distinta como todos los demás

     F                             G
    el héroe de un videojuego, algo así eres tú

  Estribillo:

  Cambio:

      G            F          C          B/C
    Aunque es evidente que te falta algún hervor,

      G           F           C           B/C
    por un cromosoma no va a haber aquí un follón

  Cambio 2:

      A                      F
    El público que decide, el tontolaba que aplaude

   e|-----------------------------
   B|-----6--5--6--5--6--8--------
   G|-----5--4--5--4--5--7--------
   D|----------------------------- X4
   A|-----------------------------
   E|-----------------------------


      A
    lo que no quiero ser nunca,

      G
    algo así eres, algo así eres, algo así eres tú.

   e|--3---3--3----------
   B|--3---3--3----------
   G|--------------------
   D|-------------------- X4
   A|--------------------
   E|--------------------


Estribillo:

Cambio:

Final:

      e|------------------------------      -----------------------------
   B|------------------------------      -----------------------------
   G|--------5-4v------5-4v--------      -10h-12--12-12h-14--14-14h-15
   D|---5-5--------5-5------5------ X2   -----------------------------
   A|------------------------------      -----------------------------
   E|------------------------------      -----------------------------

   e|------------------------------------------------------------------
   B|------------------------------------------------------------------
   G|--15-15p14--10-12-10-12v----------7-7-7v--------------------------
   D|------------------------------5-8----------3-3-3v----------3h5v---
   A|----------------------------8-----------------------3-3-3v--------
   E|------------------------------------------------------------------


Por Raúl Quintana Alarcia (Rulo19)
Viva Evaristo!
Suggest correction
Give kudos to tab author, rate the tab!
1 2 3 4 5
comments
print report bad tab
guest
You may want to rate the tab now too:
select rating
Wanna post a correction for this tab? Suggest correction