Oops, an error
Loading. Please wait.

Maldita Burguesía Chords

28 views 1 this week
no commentswrite comment
1 2 3 4 5
3 more votes to show rating
add to favorites
launch autoscroll
font size
0
reset
transpose
0
reset
simplify chords
display chords
guitar tuner
×
Best way to learn
"Maldita Burguesía"
Autoscroll
slow
fast
+/-
esc
set tempo
stop
Es la primera y no lo tengo claro...pero suena bastante bien!!

Intro:
                           PM...............
E|------------------------------- Las 2 guitarras 2 veces,
B|------------------------------- después una sigue kon D5
G|-----7---7---7---7-7-7-7-7-7--- en palm mute
D|-----7---7---7---7-7-7-7-7-7--- y la otra haze un punteo:
A|-----5---5---5---5-5-5-5-5-5---
E|-----5---5---5-----------------

E|------------------------------
B|----------8-----7------3------
G|-------7-----5-----2----------
D|------------------------------
A|------------------------------
E|------------------------------


D5                  A#5      C5
Maldita burguesía, maldita sociedad
D5                A#5       C5
Odio el dinero y toko por tokar
D5                      A#5         C5
Soy un tipo decadente, vendo mierda sin parar
D5                    A#5        A5
El sistema me utiliza para despistar


A#5                     C5
Algun dia un tipo listo me tenia ke joder
D5
Mañana mismo me  matare


Después en las estrofas komo estas se alargan los akordes,

En el estribillo kedan igual

Después del primer estribillo hay una parte en la ke no kanta:

                PM                         PM
E|-------------------------------------------------------
B|-------------------------------------------------------
G|-----7---7*-------3--3---7---7*--------------7---7*----
D|-----7---5*-------3--3---7---7*--------------7---7*----
A|-----5---5*-------1--1---5---5*------9--8----5---5*----
E|-------------------------------------9--8---------------
               PM
E|------------------------------
B|------------------------------
G|-3--3----7---7*---------------
D|-3--3----7---7*---------------
A|-1--1----5---5*-----8--7------
E|--------------------8--7-------


Y al final Hace los akordes largos de las estrofas y termina kon esto:

D5   C5  D5     D5  C5  D5
J o d e t e. .. j o d e t e


para lo ke sea: jorge_13_8@
Suggest correction
Give kudos to tab author, rate the tab!
1 2 3 4 5
comments
print report bad tab
guest
You may want to rate the tab now too:
select rating
Wanna post a correction for this tab? Suggest correction