Oops, an error
Loading. Please wait.

Cómo Has Hecho? Tab

version 1
version 1

Whole song

59 views 1 this week
no commentswrite comment
1 2 3 4 5
3 more votes to show rating
add to favorites
launch autoscroll
font size
0
reset
how to read this tab
guitar tuner
×
Best way to learn
"Cómo Has Hecho?"
Autoscroll
slow
fast
+/-
esc
set tempo
stop
hola de nuevo aki les doy mi version del como has hecho
en pura guitarra hay le ba esta rola
INTRO:

(Charango)
                 (n)                      (n 2)
    |    se repite 6 veces    |  esto solo tres veces  |
e|-|----------12-14-12-------|----------12-14-15-12---|
B|-|-15----15----------15----|-15----15---------------|
G|-|----14----------------14-|----14------------------|
D|-|-------------------------|------------------------|
A|-|-------------------------|------------------------|
E|-|-------------------------|------------------------|
Luego tentras q hacer n y n2 n intercalando 4 veces

(Guitarra)

  |                 4 veces                  |
e|--------0---0-2---2-3---3-2---2-0---0-----|
B|--3---3---3-----3-----3-----3-----3-------|
G|----2-------------------------------------|
D|--0-----------0-----------0---------------|
A|--------0-----------0-----------0---------|
E|------------------------------------------|

(Zampoña)

e|-------------------3-------3-5-3--------------------3-------3-----|
B|-3--------3-5-3------3---3-------3--3-------3-5-3-----3---3--3-5-7|
G|---2----2-------2------4--------------2---2-------2-----4---------|
D|-----4----------------------------------4-------------------------|
A|------------------------------------------------------------------|
E|------------------------------------------------------------------|

(Bajos)

G|-------------------------------------------------------------------|
D|-0-0-----0--0-----0-0-----0--0-----2-2-----2--2-----2-2----2--2----|
A|-----0-0------0-0-----0-0------0-0-----0-0------0-0-----0-0-----0-0|
E|-------------------------------------------------------------------|
     Esto se repite desde el inicio de la cancion hasta el final


   D                      A
Debí saber que al amarte yo me perdia
    G                        D     A
debi saber que tu mundo ya no era mio
 D                                A
es tan lejano aquel dia en que me decias
   G                               D    A
ya no soy niña no juego con mis sentimientos.

  D                      A
¿Cómo has hecho para amarte asi?
  G                    D      A
¿Cómo has hecho que te quiera así?
   D                    A
¿Cómo has hecho, me mataste amor?
  G                D        A
¿Cómo has hecho? ¿Cómo has hecho?


D                                F#m
Al saber que era ajeno a mis sentimientos
G                                        D  A
de este hombre tan torpe que has hecho en mi
    D     F#m    G         A
lay ra la la la lay ra la la lay ra la...

........*.........*
.....*...............*
...*....................*
..*......................*
.*........................*.........*....
*.........................*...*..........
.*.........................*.............
..*.........................*............
...*..................para M...y.............
.....*..................................
........*...........................*
...........*......................*
...............*...............*
..................*..........*
.....................*.....*
......................*..*
........................*
........................*
.......................*
........................*

la cancion se repite dos veces bye cuidense...
comentarios ami correo (arcangel_125_1@
Suggest correction
Give kudos to tab author, rate the tab!
1 2 3 4 5
comments
print report bad tab
guest
You may want to rate the tab now too:
select rating
Wanna post a correction for this tab? Suggest correction