Oops, an error
Loading. Please wait.

Otra Vez Me Equivoqué Tab

13 views 1 this week
no commentswrite comment
1 2 3 4 5
3 more votes to show rating
add to favorites
launch autoscroll
font size
0
reset
how to read this tab
guitar tuner
×
Best way to learn
"Otra Vez Me Equivoqué"
Autoscroll
slow
fast
+/-
esc
set tempo
stop
Esta cancion se la dedico para una chica muy especial...
Para ti jessica con mucho amor..para q sepan todos
q yo Te Quiero de Verdad..Spero pronto estar junto a ti
Barrita de Chocolate con Leche..Si pudiera hacer algo
para verte sonreir..

Te Quiero Mushooo Jessica (Chiclayo - Peru)
Tmb quiero mandar Saludos a mi otro amor xD!..TkM Dana Belen
mi sobrina linda preciosa q hace tiempo no la veo =(pa mi viejo
hermana,hermano,cuñada..pa Pipo & Nene..Y que 100pre
Dios nos Bendiga

Plop!!Sugerencias y o Pedi2 trulo_03@hot..

Otra vez me equivoque como la primera vez
C                     Dm        E    Am
Otra vez me equivoque como la primera vez
C                     Dm        E    Am
Otra vez la soledad embarga mi corazon
C           G                     C
Otra vez melancolia otra vez separacion
               G     E        Am

E:-----------3---|--------------|
B:-3h5-55555---5-|-333-5--------|
G:---------------|------5-4-2---|                       (Bis)
D:---------------|--------------|
A:---------------|--------------|
E:---------------|--------------|


E:-----------|----------------|---------|------------|
B:-------5-3-|-5-3--------3h5-|------5-3|-5-3--------|
G:-55555-----|-----5-2--------|-55555---|----5-2-55-2| (Bis)
D:-----------|--------5-5-----|---------|------------|
A:-----------|----------------|---------|------------|
E:-----------|----------------|---------|------------|


El Baiben de mi destino me lleva de aqui para alla
C                       Dm         E        Am
El Baiben de mi destino me lleva de aqui para alla
C                       Dm         E        Am
Quisiera hallar el camino q me lleve a ser feliz
C               G                          C
Quisiera hallar la mujer para llevarla al altar
                  G           E          Am

E:-----------3---|--------------|
B:-3h5-55555---5-|-333-5--------|
G:---------------|------5-4-2---|                       (Bis)
D:---------------|--------------|
A:---------------|--------------|
E:---------------|--------------|


E:-----------|----------------|---------|------------|
B:-------5-3-|-5-3--------3h5-|------5-3|-5-3--------|
G:-55555-----|-----5-2--------|-55555---|----5-2-55-2| (Bis)
D:-----------|--------5-5-----|---------|------------|
A:-----------|----------------|---------|------------|
E:-----------|----------------|---------|------------|


No pierdo las esperanzas de vestirla de blanco tul
C                         Dm          E        Am
No pierdo las esperanzas de vestirla de blanco tul
C                         Dm          E        Am
No pierdo las esperanzas de bailar el danubio azul
C             G                              C
Con una solterita q me quiera de verdad
           G       E                Am
Fuga :

Si hoy estoy triste por un querer
Am                         C
Si hoy yo sufro por un amor
          G            C
Tarde o temprano encontrare el amorcito q yo soñe
                 G    C                    E Am

E:-------------------------|-------------------------|
B:------------------1-0----|-------------------------|
G:---0-1-2-1-2-1-2-1---1-2-|--------------------0-1-2|
D:-2-----------------------|-3-2-0---------0-1-2-----|
A:-------------------------|------3-2-0-2-3----------|
E:-------------------------|-------------------------|


Pa la gente del 4vr..Cusco - Peru..Chovi,Drec,Mauricio,Jyto
Grinch,Marron,Punkplinas,Jere...Hasta q el Cuerpo Aguante
y q VIVA LA SANDILLA ...
Suggest correction
Give kudos to tab author, rate the tab!
1 2 3 4 5
comments
print report bad tab
guest
You may want to rate the tab now too:
select rating
Wanna post a correction for this tab? Suggest correction