Oops, an error
Loading. Please wait.

Cuando Vengas Por Mí Tab

35 views 3 this week
no commentswrite comment
1 2 3 4 5
3 more votes to show rating
add to favorites
launch autoscroll
font size
0
reset
how to read this tab
guitar tuner
×
Best way to learn
"Cuando Vengas Por Mí"
Autoscroll
slow
fast
+/-
esc
set tempo
stop
Intro

|-----------------------------------|
|-1-0--3-1--0-111-----1-0---1-------|
|-2-2--2-2--2-222-----2-2---2-------|
|-2-2--2-2--2-222-----3-3---3-------|
|-----------------------------------|
|-----------------------------------|


Riff

|-----------------------------------||-----------------------------------|
|-----------------------------------||-----------------------------------|
|------5-7-4----------5-7-4---------||------5-7-4----------5-7-4-5-------|
|--7-7-------5---7--7-------5-------||--7-7-------5---7--7---------------|
|--------------7--------------------||--------------7--------------------|
|-----------------------------------||-----------------------------------|

Am

Y ahora yo quiero ver
                           F                  (Arreglo 1)
que es lo que vas a hacer cuando venga el final

Am
Una sonrisa mas
                       F            (Arreglo 1)
o una caricia que no llega hasta acá
Am
Igual puedo entender
                     F             (Arreglo 1)
igual puedo saber las cosas son así
Am
una careta mas
                     F
y esta mentira que no cambia para mi

[Intro + Riff]

G                               F
Te tiemblan las piernas hasta la locura
Am                                F
que viene que llega que pega y se va
G                                F
se abren tus ojos se apagan las dudas
Am(Arreglo2)                     F          G
el tiempo se acaba y te invito a bailar


[Intro + Riff]


Am                                              |
Y ahora quiero saber                            |
                         F                      |
que es lo que voy a ver cuando vengas x mi      |
                                                |    Sobre Base I
Am                                              |
mil rayas que cruce                             |
                               F                |
o es un destello que se apaga frente a mi       |


Am (Arreglo 3)
Tambien podes correr
                           F
siempre podes perder, las cosas son así

Am (Arreglo 3)
una careta mas

                     F
y esta mentira que no cambia para mi


G                                F
Te tiemblan las piernas hasta la locura
Am                                F
que viene que llega que pega y se va
G                                F
se abren tus ojos se apagan las dudas
Am(Arreglo2)                     F            G
el tiempo se acaba y te invito a bailar

[Intro + Riff]


Arreglo 1

|---------------------------|
|---------------------------|
|---------------------------|
|--10-9--7------------------|
|--x--x--7------------------|
|-/8--7--5------------------|

Arreglo 2

|---------------------------|
|---------------------------|
|---------------------------|
|-7-9-10-12-14--3-----------|
|-7-x-x--x--x---3-----------|
|-5-7-8--10-12--1-----------|

Arreglo 3

|---------------------------|
|---------------------------|
|---------------------------|
|---------------------------|
|---------------------------|
|--5---7-8---1----/8-7--5---|

Base I

|--------------------------------------|
|-1-0-1-3---1-0-1----1-0-1-3---3-1-0---|
|-2-2-2-2---2-2-2----2-2-2-2---2-2-2---|
|-2-2-2-2---2-2-2----3-3-3-3---3-3-3---|
|--------------------------------------|
|--------------------------------------|


Es la primera tablatura que subo. Acepto critica constructivas.
Por cualquier consulta 

Jota "Ozono"
Suggest correction
Give kudos to tab author, rate the tab!
1 2 3 4 5
comments
print report bad tab
guest
You may want to rate the tab now too:
select rating
Wanna post a correction for this tab? Suggest correction