Oops, an error
Loading. Please wait.

Piérdete Chords

8 views 1 this week
no commentswrite comment
1 2 3 4 5
3 more votes to show rating
add to favorites
launch autoscroll
font size
0
reset
transpose
0
reset
display chords
guitar tuner
Autoscroll
slow
fast
+/-
esc
set tempo
stop
Help us to improve Ultimate-Guitar.com Take our survey!
×
---------------------------------------------------------------
---------------------------------------------------------------
------11b13--13---11--9h11-11--11-9-11-9-8--8h9-8--6--8-9-8----
---9-----------------------------------------------------------
---------------------------------------------------------------
---------------------------------------------------------------

---------------------------------------------------------------
---------------------------------------------------------------
------11b13--13---11--9h11-11--11-9-11-9-8--8h9-8--6--8-9-8-9-6
---9-----------------------------------------------------------
---------------------------------------------------------------
---------------------------------------------------------------

intro: C#m  F#m  B  G#

parte 1:
 C#m                  F#m
DEJAME DORMIR ENTRE TUS PIERNAS OTRA VEZ
 B                     G#
DEJAME SENTIR MAS TUS LATIDO
   C#m                        F#m
O DEJAME PARTIR DE TU AUSENCIA DEJAME
  B                        G#
AHOGARTE EN ESTE VASO DE VINO

parte 1:

DEJAME SENTIR QUE AUN HAY ALGO QUE PERDER

QUE NO SE HAN LLEVADO LAS CENIZAS

PORQUE ESTA NOCHE EL HUMO NO ME QUITA EL DOLOR

Y MIL PRINCESAS NO HACEN UNA REINA

parte 2:

Bm                     F#m
PIÉRDETE MUJER, SOLO PIÉRDETE ESTA VEZ
G#                        C#m  (sigue igual toda la estrofa)
LLEVATE DE MI ALMA ESA SONRISA

PIÉRDETE UJER, SOLO MIENTE OTRA VEZ

QUITALE EL VENENO A TUS PALABRAS

PORQUE TODO ME RESULTA TAN DIFÍCIL SI NO ESTAS

TU CARIÑO VA EN LA CUENTA DE MI OLVIDO

PORQUE NADIE ME ARRANCA UNA SONRISA Y AL FINAL

A MI TIEMPO SE LE ESTA ACABANDO EL TIEMPO
          Bm            F#m       G#    C#m  A-G#
POR ESO PIÉRDETE SOLO PIÉRDETE, PIÉRDETE

parte 1:

PORQUE CADA NOCHE SON MIL NOCHES PARA MI

Y MI ALMA NO ENCUENTRA UNA SALIDA

DEJAME ESCAPAR DE ESTA TRISTE LIBERTAD

DONDE ME HAS DEJADO ENCARCELADO

MUERETE UN POQUITO MAS AQUÍ EN MI CORAZON

AHOGATE EN EL MAR QUE HAY EN MIS OJOS

YA PERDI EL SENTIDO Y MI SENTIDO LA RAZON

PERO ALGUIEN COMENZO A CERRAR MI HERIDA


POR ESO PIÉRDETE, SOLO PIÉRDETE

PIÉRDETE...
Suggest correction
Give kudos to tab author, rate the tab!
1 2 3 4 5
comments
print report bad tab
guest
You may want to rate the tab now too:
select rating
Wanna post a correction for this tab? Suggest correction