Oops, an error
Loading. Please wait.

Cantaré Tab

51 views 1 this week
no commentswrite comment
1 2 3 4 5
3 more votes to show rating
add to favorites
launch autoscroll
font size
0
reset
how to read this tab
guitar tuner
×
Best way to learn
"Cantaré"
Autoscroll
slow
fast
+/-
esc
set tempo
stop
INTRO: C#-D-E-F#  C#-D-E


1ªra PARTE
e|-------------------------12-12-12-12-12-12-12-14-14-14-14-14-|
B|-15-15-15-15-14-14-14-14-------------------------------------|
G|-------------------------------------------------------------|
D|-------------------------------------------------------------|


e|-------------------------12-12-12-12-12-12-12-12-12-12-12-12-
B|-15-15-15-15-14-14-14-14-------------------------------------|
G|-------------------------------------------------------------|
D|-------------------------------------------------------------|

2ºda PARTE
e|-------------------------12-12-12-12-12-12-14-14-14-14-14-14-|
B|-14-14-14-14-15-15-15-15-------------------------------------|
G|-------------------------------------------------------------|
D|-------------------------------------------------------------|


e|-------------------------12-12-12-12-12-12-12-12-12-12-12-12-|
B|-14-14-14-14-15-15-15-15-------------------------------------|
G|-------------------------------------------------------------|
D|-------------------------------------------------------------|

SOLO: C#-D-E-F#  C#-D-E

e|-17-17-17-17-16-16-16-16---------------------------------------|
B|-------------------------14-14-14-14-15-15-15-15---------------| 4
G|-------------------------------------------------14-14-14-14-14|veces
D|---------------------------------------------------------------|


ESTA ES MI PRIMERA TRANSCRICION BUENO ESPERO Q LES
GUSTE Y SI TIENEN
ALGUNA DUDA ME ESCRIBEN A
MI CORREO diferenciaesde@
bendiciones a la iglesia "UNIDOS EN CRISTO JESÚS"
 EN OTAVALO-ECUADOR
Suggest correction
Give kudos to tab author, rate the tab!
1 2 3 4 5
comments
print report bad tab
guest
You may want to rate the tab now too:
select rating
Wanna post a correction for this tab? Suggest correction