Oops, an error
Loading. Please wait.

Cantaré Chords

30 views 1 this week
no commentswrite comment
1 2 3 4 5
3 more votes to show rating
add to favorites
×
Save as Personal and add changes to this tab that will be seen only by you. Learn more ›
×
You can save this tab as Personal to edit and correct it or add notes. All changes will be seen only by you. Learn more »
save as personal
new!
launch autoscroll
font size
0
reset
transpose
0
reset
simplify chords
display chords
guitar tuner
Autoscroll
slow
fast
+/-
esc
set tempo
stop
Strumming
There is no strumming pattern for this song yet. and get +5 IQ
Guitarra 1:
         C#          D

e|-------------------------|
a|--4--4--4--4--5--5--5--5-|
d|--6--6--6--6--7--7--7--7-|
g|-------------------------|
b|-------------------------|
e|-------------------------|

    E           F#
e|----------------------------|
a|-9--9--9--9-11-11-11-11-----|
d|----------------------------|
g|----------------------------|
b|----------------------------|
e|----------------------------|
         C#          D
e|-------------|-------------
a|--4--4--4--4-|-5--5--5--5--
d|--6--6--6--6-|-7--7--7--7--
g|-------------|-------------
b|-------------|-------------
e|-------------|-------------

         E
e|-----------------|
a|-7--7--7--7--7--7|
d|-9--9--9--9--9--9|
g|-----------------|
b|-----------------|
e|-----------------|

Guitarra 2:
e|¬----14--14--14--14--15--15--15- Tercera vuelta(1)
b|--------------------------------
g|--------------------------------

e|--15--17--17--17--17--19--19--19--19|
b|------------------------------------|
g|------------------------------------|

e|¬----14--14--14--14--15--15--15-
b|--------------------------------
g|--------------------------------

e|--15--17--17--17--17--|
b|----------------------|
g|----------------------|

A/C#               D       E           F#m
Me abrazas con tu amor, dependo solo de ti
A/C#            D          E
Recuerdo tus promesas, por siempre te esperaré

Pré-coro:
A/C#      D              E         F#m
Mi ayuda eres tu contigo estaré nunca temeré,
A/C#          D           E
confiado en ti señor tus pasos yo seguiré

Coro:
A         D        A/C#         D
Cantaré gritaré, en libertad yo te amaré,
 A             D             F#m          E
contigo Dios proclamaré, que en victoria viviré.
Verso:
A/C#           D              E             F#m
Dispuesto estoy señor tus fuerzas están en mi
A/C#             D                   E
Quitaste mi aflicción yo nunca te dejaré.

A     Bm    A/C#             D
Uoh oh oh oh oh, Uoh oh oh oh
Suggest correction
Give kudos to tab author, rate the tab!
1 2 3 4 5
comments
print report bad tab
guest
Wanna post a correction for this tab? Suggest correction