Oops, an error
Loading. Please wait.

En Tus Brazos Tab

version 2
version 2

Whole song

88 views 1 this week
no commentswrite comment
1 2 3 4 5
3 more votes to show rating
add to favorites
launch autoscroll
font size
0
reset
how to read this tab
guitar tuner
Autoscroll
slow
fast
+/-
esc
set tempo
stop
Intro: (Gm- F-Gm-D)

(Gm-F-Gm-D)
 Conocer tu amor mi vida cambió
 Tú marcaste mi corazón
 Tu rostro quiero ver, y a tu lado hoy volver
 Siempre en mi mente estarás tú

e:------------------------
B:-/11-10/6--11-10/15-----
G:------------------------

>>>(verso)

Puente:
(C-Gm- F)
Jamás podré olvidar tu amor
Nunca más quiero estar sin ti

Coro:

(Bb-F-Gm-C)
Hoy vuelvo a tus brazos
Siento haber fallado

(Bb-F-Gm-C)
Te amo, te amo, anhelo tu abrazo
Se acaba mi vida si no estás a mi lado
Te amo, te amo, anhelo tu abrazo

Solo 1:
e:---------------------------------------------------------------
B:-11-11-11-11-11-11-11/10-10-10-10-10/6-6/8-6/8--6-6/8-6--------
G:--------------------------------------------------------87-----
D:------------------------------------------------------------8--
A:---------------------------------------------------------------

e:---------------------------------------------------------------
B:-11-11-11-11/13-13-10-10h11-10---------------------------------
G:-------------------------------10-10-8-8-7-7--7h8-7----7-------
D:----------------------------------------------------10---------
A:---------------------------------------------------------------

e:---------------------------------------------------------------
B:-----------------------------------10h11-10-------13-----------
G:-7-7h8--------------------------10----------12-10--------------
D:-------10-8-8--7h8-7-------------------------------------------
A:---------------------10-8-8h10---------------------------------
E:---------------------------------------------------------------

e:-----------------------------------
B:----10h11-10-----------------------
G:-10----------12-10h12-12-----------
D:-------------------------12/13-13--
A:-----------------------------------

>>>(todo)

Solo 2:
e:----------------------------------------------------------------
B:----------------------------------------------------------------
G:12-12-12/17-17-17--12-12-12/19-19-12-12-12/17-17-12-12-12-15-14-
D:--------------------------------------------------------------15
A:----------------------------------------------------------------

e:---------------------------------------13--------13-------13----
B:-----------------8-8-8/15-15-13/15-15b----15-15b----15-15b---15-
G:12-12-12/17-17-17-----------------------------------------------
D:----------------------------------------------------------------

e:-13/18-18-18-17----17----18-17----17----18-17------------------
B:----------------18----18-------18----18-------18-18/20-20------
G:---------------------------------------------------------------

e:-13/18-18-18-17----17----18-17---------------------------------
B:----------------18----18-------18--18-18-15-15-20-20-----------
G:----------------------------------------------------13-13-13/15
D:---------------------------------------------------------------

>>>coro

le quiero agradecer a "Cristian" de esta misma seccion pues
 por los solos y los riffs .Los derechos de autor son todos
 suyos compadre¡.

bueno muchachos ... que bonito es adorarle y cantarle a
Dios de corazon haganlo con toda su alma y Èl les
responderà y les darà
LO QUE QUIERAN ...
bueno practiquen mucho esta cancion. Si no tienen
pedal no se preocupen sin el tambien suena ...
saludos a G42 (revelacion del espìritu santo) Motha y Oscar
chaos
Suggest correction
Give kudos to tab author, rate the tab!
1 2 3 4 5
comments
print report bad tab
guest
Wanna post a correction for this tab? Suggest correction