Oops, an error
Loading. Please wait.

Eres Santo Tab

version 1
version 1

Whole song

92 views 6 this week
no commentswrite comment
1 2 3 4 5
3 more votes to show rating
add to favorites
launch autoscroll
font size
0
reset
how to read this tab
guitar tuner
Autoscroll
slow
fast
+/-
esc
set tempo
stop
Help us to improve Ultimate-Guitar.com Take our survey!
×
aqui les mando despues de haber visto el video del mismo g12
espero q les ayude un poco


intro:


esto es cuando entra la dama a cantar

e-----------------      E------------
a-----------------      d------------
d----------------- (X3) a---------11-
g-----------------      g------11----
b-----------------      b-12-11------
e-7v--s---14v-s7--      e------------


e----------------------------------
a-----4------4-----6------9------9-
d-(x4)4--(x4)3-(x4)4--(x4)9-(x4)-8-
g----------------------------------  esto hace en toda la cancion
b----------------------------------
e----------------------------------

esto es antes de entrar al coro
e--------------------------------------------
d--------------------------------------------
a--------------------------------------------
g----------------------------------------------4--4--4--4
b-12-12-12-12-12-12-11-11-11-11-11-11s2-2-2-2-4--4--4--4-
e--------------------------------------------

e------------------------------
a-------------------------------
d-------------------------------
g-------------------------------
b---7--7--7--7--7--7--7--7--7--
e-6--6--6--6---7----7--9--9---9-


solo

e--------------------------------------------
d--------------------------------------------
a--------------------------------------------
g----------------------------------------------4--4--4--4
b-12-12-12-12-12-12-11-11-11-11-11-11s2-2-2-2-4--4--4--4-
e--------------------------------------------


e------------------------------------
a------------------------------------
d-----------------------------------
g----------------------------------
b-12-12-12-12-12-12-11-11-11-11-11--
e-----------------------------------

b-14-14-16--16--16--16-----19--19--19v
e---------14--14--14--14-18--18--18--


bueno eso es toda la canion pra cualquier consulta ami correo
ivan_1_cp@hotm...     y solamente adoren a dios DTB
Suggest correction
Give kudos to tab author, rate the tab!
1 2 3 4 5
comments
print report bad tab
guest
You may want to rate the tab now too:
select rating
Wanna post a correction for this tab? Suggest correction