Oops, an error
Loading. Please wait.

Eres Todo Para Mí Tab

version 1
version 1

Whole song

278 views 1 this week
no commentswrite comment
1 2 3 4 5
2 more votes to show rating
add to favorites
launch autoscroll
font size
0
reset
how to read this tab
guitar tuner
×
Best way to learn
"Eres Todo Para Mí"
Autoscroll
slow
fast
+/-
esc
set tempo
stop
INTRODUCTION:
e|--8-8-7-8-10-8---8-8-7-8-10-8---8-8-7-8-10-8-------
B|--8-8-8-8--8-8---8-8-8-8--8-8---6-6-6-6--6-6-------
G|---------------------------------------------------
D|---------------------------------------------------
A|---------------------------------------------------
E|---------------------------------------------------

e|-8-8-7-8-10-8----------------------------------------17-
B|-6-6-6-6--6-6---10-10-8-10---10-10-8-10---10--13-17--17-
G|----------------9---9-9--9----9--9-9--9----9--12-16--16-
D|--------------------------------------------------------
A|--------------------------------------------------------
E|--------------------------------------------------------

      * mantenga esta nota
e|-8*----10--13-12-13--13---12---8-------------------------
B|-8*----10--10-10-10--10---10---8-------------------------
G|--------------------------------------------------------
D|--------------------------------------------------------
A|--------------------------------------------------------
E|--------------------------------------------------------

VERSO
Vivo por entregarme a ti..
e|-13-12-10-----------------------------------------
B|---------13 x4----10-8-10-------------------------
G|--------------------------------------------------
D|--------------------------------------------------
A|--------------------------------------------------
E|--------------------------------------------------

PRE-CORO: Dm,Am,C,G Dm,Am,C,F,G

CORO:

Tu estas conmigo..       tu me ayudas?
e| -8--------------------------------------------
B|---8------------------------------------------
G| -----9 x4-------10-9-7-----10-9-7----9-10-9-7 x2--
D|-----------------------10---------10---------------
A|---------------------------------------------
E|---------------------------------------------

   En los tiempos..
e|- 8----------------------------------13-12-10-8-----
B|---8--------------------------------------------
G| ----9 x4------10-9-7-----10-9-7-------------------
D|---------------------10---------10-----------------
A|-----------------------------------------------
E|-----------------------------------------------

Solo toca esta rifa en el primer coro
e|--------------------------13-12-10-----------------
B|--10-8-10---8-10-------------------13 x4---10-8-10-
G|-----------------9---------------------------------
D|-------------------10------------------------------
A|----------------------10---------------------------
E|---------------------------------------------------

VERSO, PRE-CORO, CORO

PUENTE:
e|-----------------------------------------------
B|--8---6-5---5---------------------------------------
G|----5-----5-------5-7-------------------------------
D|--------------5-7-----------------------------------
A|----------------------------------------------------
E|----------------------------------------------------

SOLO:
e|-------10-12---7-8-10----10-12---18-17-15--10-8-10-
B|--8-10----------------11----------------------------
G|--------------------------------------------------
D|--------------------------------------------------
A|--------------------------------------------------
E|--------------------------------------------------

e|--12-10-12--13-12-13-15----------------------------
B|--------------------------------------------------
G|--------------------------------------------------
D|--------------------------------------------------
A|--------------------------------------------------
E|--------------------------------------------------
Suggest correction
Give kudos to tab author, rate the tab!
1 2 3 4 5
comments
print report bad tab
guest
You may want to rate the tab now too:
select rating
Wanna post a correction for this tab? Suggest correction