Oops, an error
Loading. Please wait.

Eres Todo Para Mí Tab

version 2
version 2

Whole song

240 views 1 this week
no commentswrite comment
1 2 3 4 5
3 more votes to show rating
add to favorites
launch autoscroll
font size
0
reset
how to read this tab
guitar tuner
Autoscroll
slow
fast
+/-
esc
set tempo
stop
Help us to improve Ultimate-Guitar.com Take our survey!
×
Hola a Todos, y Que dios Los Bendiga
Mi nombre es Oscar Arias
Aqui les dejo la tablaturade Eres Todo para Mi ..
Espero que les sea muy Util ..
Para cualquier sugerencia comunicarse a mi correo electronico
sambo_oscar_1994@
**********************************************************************

INTRODUCTION:
e|--8-8-7-8-10-8-7-8---8-8-7-8-10-8-7-8----------------8----------
B|--8-8-8-8--8-8-8-8---6-6-6-6--6-6-6-6----10-10-8-10-10-10-8-10--
G|------------------------------------------9--9-9--9--9--9-9-9---
D|----------------------------------------------------------------

 Este es un Riff que se hace para entrar a la 2da parte del Intro
e|-------------------------------12-------12--15/17------
B|----------------9------9/13-13---13---13---------------
G|---5--------------10----------------14-----------------
D|-----7-5-7/10--------9---------------------------------


Esta es la 2da parte del IntroQ es un Poco Diferente a la 1ra

La guitarra de Peso hace estos Acorde en 8vas:
    - C Dm Em Gm F Em C Am...

e|--8-8-7-8-10-8-7-8----12-12-10-12-13-12-10-12---
B|--8-8-8-8--8-8-8-8----11-11-11-11-11-11-11-11---  ==> Sigue abajo
G|------------------------------------------------

e|--10-10--8-12-10--8-10---
B|--10-10-10-10-10-10-10--- ===> Luego Se Tocan F - Am
G|-------------------------

Estos son los Acordes de la Estrofa:

Am C Gm Dm ://

VERSO
Vivo por entregarme a ti..
e|-13-13-12-12-10-10--------------------------------
B|--------------------13x4----10---8----10----------
G|--------------------------------------------------
D|--------------------------------------------------
A|--------------------------------------------------
E|--------------------------------------------------

Para entrar al Pre-Coro se Tocan estas notas:
 Em,Dm,Em,F y queeda en el Dm del pre-coro

PRE-CORO:
 Dm,Am,C,Gm Dm,Am,C,F,Gm

CORO: C

Tu estas conmigo..       tu me ayudas?
e| -8---------------------------8-----------------------
B|---8---------------------8-h10--10--x2----------------
G| -----9 x4------------------------------9h10h9--7-----
D|------------------------------------------------------
A|------------------------------------------------------
E|------------------------------------------------------

   En los tiempos..
e| -8---------------------------8--------10/13-12-10v---
B|---8---------------------8-h10--10--x2----------------
G| -----9 x4--------------------------------------------
D|------------------------------------------------------
A|------------------------------------------------------
E|------------------------------------------------------


VERSO, PRE-CORO, CORO

PUENTE:
e|-----------------------------------------------
B|--8---6-5---5---------------------------------------
G|----5-----5-------5-7-------------------------------
D|--------------5-7-----------------------------------
A|----------------------------------------------------
E|----------------------------------------------------

SOLO:
e|-------10-12---7-8-10----10-12---18-17-15--10-8-10-
B|--8-10----------------11----------------------------
G|--------------------------------------------------
D|--------------------------------------------------
A|--------------------------------------------------
E|--------------------------------------------------

e|--12-10-12--13-12-13-15----------------------------
B|--------------------------------------------------
G|--------------------------------------------------
D|--------------------------------------------------
A|--------------------------------------------------
E|--------------------------------------------------
Suggest correction
Give kudos to tab author, rate the tab!
1 2 3 4 5
comments
print report bad tab
guest
You may want to rate the tab now too:
select rating
Wanna post a correction for this tab? Suggest correction