Oops, an error
Loading. Please wait.

Eres Todo Para Mí Tab

version 3
version 3

Whole song

677 views 1 this week
no commentswrite comment
1 2 3 4 5
3 more votes to show rating
add to favorites
launch autoscroll
font size
0
reset
how to read this tab
guitar tuner
Autoscroll
slow
fast
+/-
esc
set tempo
stop
La siguiente es la tablatura completa de la guitarra 1 de Eres todo para mí,
basada en el video hecho por Leonardo Cabrera uno de los guitarristas de
generación 12, mi recomendación es que miren el video en Youtube
 ya que el ritmo el tiempo y
espacio de la guitarra es de dificultad expresarlo aqui.
Cualquier duda comenten.

Se le ponen los siguientes efectos a la guitarra:

Overdrive
Delay con Mix alto y Feedback.

Intro:

e|--8--8--7--8--8-10--8--8--8--7--7--8--8--8--|
B|--8--8--8--8--8--8--8--8--8--8--8--8--8--8--|
G|--------------------------------------------|
D|--------------------------------------------|
A|--------------------------------------------|
E|--------------------------------------------|


e|--8--8--7--8--8--10-8--8--8--7--7--8--8--8--|
B|--6--6--6--6--6--6--6--6--6--6--6--6--6--6--|
G|--------------------------------------------|
D|--------------------------------------------|
A|--------------------------------------------|
E|--------------------------------------------|


e|--------------8--7--------|
B|-10-10--8-10-10-10-10--8--|
G|--9--9--9--9--9--9--9--9--|
D|--------------------------|
A|--------------------------|
E|--------------------------|


e|--0--------|-----------|--------|---------------------------|
B|-----------|--9--------|-13-----|--17b18--17r16--17--20b22--|
G|-----5-----|-----8-----|----12--|---------------------------|
D|--------7--|--------9--|--------|---------------------------|
A|-----------|-----------|--------|---------------------------|
E|-----------|-----------|--------|---------------------------|


e|--8--8--7--8--8-10--8--8--8--7--7--8--8--8--|
B|--8--8--8--8--8--8--8--8--8--8--8--8--8--8--|
G|--------------------------------------------|
D|--------------------------------------------|
A|--------------------------------------------|
E|--------------------------------------------|


e|--12--12--10--12--13--12--10--12--|
B|--11--11--11--11--11--11--11--11--|
G|----------------------------------|
D|----------------------------------|
A|----------------------------------|
E|----------------------------------|


Esta es D


e|--10--10--10--10--10--13--12----------|
B|--10--10--10--10--10----------10------|
G|----------------------------------12--|
D|--------------------------------------|
A|--------------------------------------|
E|--------------------------------------|


Esta es F


e|--13--|
B|--13--|
G|--10--|
D|--10--|
A|------|
E|------|


Esta es Am


e|------|
B|--10--|
G|---9--|
D|--10--|
A|------|
E|------|


Estrofa:


Este es el Riff que se mete en algunas partes de la estrofa:


(...) Mi deseo eres tu mi Cristo


    e|----------------------------------|
    B|--18--18--17--17------------------|
    G|------------------19--19--17--17--| x3
    D|----------------------------------|
    A|----------------------------------|
    E|----------------------------------|

    B|--18--18--17--17--------------------------------------|
    G|------------------19--19--17--17----------------------|
    D|----------------------------------19r18--17r16--19\0--|
    A|------------------------------------------------------|
    E|------------------------------------------------------|

(...) Puedo escuchar tu corazón


                        e|----------------------------------|
                        B|--18--18--17--17------------------|
                        G|------------------19--19--17--17--| x3
                        D|----------------------------------|
                        A|----------------------------------|
                        E|----------------------------------|


(...) Mi deseo eres tu mi Cristo


                      e|------------------|
                      B|------------------|
                      G|--9--9--0--9--10--|
                      D|--9--9--7--9--10--|
                      A|------------------|
                      E|------------------|


PRE-CORO

Todo el tiempo,


e|--10--|
B|--10--|
G|---7--|
D|---7--|
A|------|
E|------|

esperando

e|--10--|
B|--10--|
G|---9--|
D|---7--|
A|------|
E|------|

tu amor sin condición

e|--13--|             e|--10--10--10--10--10--|
B|--13--|             B|--10--10--10--10--10--|
G|--12--|             G|--12--10--12--10--12--|
D|--10--|             D|--12--10--12--10--12--|
A|------|             A|----------------------|
E|------|             E|----------------------|

cada momento

e|--10--|
B|--10--|
G|---7--|
D|---7--|
A|------|
E|------|

yo te deseo

e|--15--| e|--13--|
B|--15--| B|--13--|
G|--12--| G|--10--|
D|--12--| D|--10--|
A|------| A|------|
E|------| E|------|

yo te deseo

e|--8--|
B|--8--|
G|--5--|
D|--5--|
A|-----|
E|-----|

Esta es F y G

e|------| e|------|
B|------| B|------|
G|--10--| G|--12--|
D|--10--| D|--12--|
A|---8--| A|--10--|
E|------| E|------|

CORO

tienen que quitarle el delay.

Tu estas conmigo

Esta es C

e|-----|
B|-----|
G|--5--|
D|--5--|
A|--3--|
E|-----|

tu me ayudas

Esta es D

e|-----|
B|-----|
G|--7--|
D|--7--|
A|--5--|
E|-----|

me sostienes

Esta es A

e|------|
B|--10--|
G|---9--|
D|---7--|
A|------|
E|------|

eres todo para mi

Esta es G

e|-----|
B|-----|
G|-----|
D|--5--|
A|--5--|
E|--3--|

en los tiempos de dolor

Esta es C

e|-----|
B|-----|
G|--5--|
D|--5--|
A|--3--|
E|-----|

me cuidas

Esta es G

e|-----|
B|-----|
G|-----|
D|--5--|
A|--5--|
E|--3--|

me protejes

Esta es D

e|-----|
B|-----|
G|--7--|
D|--7--|
A|--5--|
E|-----|

Esta es F

e|------|
B|------|
G|--10--|
D|--10--|
A|---8--|
E|------|

eres todo para mi

Esta es Am


e|------|
B|--10--|
G|---9--|
D|--10--|
A|------|
E|------|


se le pone el delay

e|------------------------|
B|--10--10--8ho10---------|
G|---9---9----------------|
D|-----------------10\5~--|
A|------------------------|
E|------------------------|


Esta es la parte de Alex Campos

e|----------------------------------|
B|--18--18--17--17------------------|
G|------------------19--19--17--17--| X3
D|----------------------------------|
A|----------------------------------|
E|----------------------------------|

e|----------------------------------------------|
B|--18--18--17--17------------------------------|
G|------------------19--19--17--17------17------|
D|----------------------------------19------19--|
A|----------------------------------------------|
E|----------------------------------------------|

Estrofa:


Este es el Riff que se mete en algunas partes de la estrofa:


(...) Mi deseo eres tu mi Cristo


    e|----------------------------------|
    B|--18--18--17--17------------------|
    G|------------------19--19--17--17--| x3
    D|----------------------------------|
    A|----------------------------------|
    E|----------------------------------|

    e|------------------------------------------------------|
    B|--18--18--17--17--------------------------------------|
    G|------------------19--19--17--17----------------------|
    D|----------------------------------19r18--17r16--19\0--|
    A|------------------------------------------------------|
    E|------------------------------------------------------|


(...) Puedo escuchar tu corazón


                        e|----------------------------------|
                        B|--18--18--17--17------------------|
                        G|------------------19--19--17--17--| x3
                        D|----------------------------------|
                        A|----------------------------------|
                        E|----------------------------------|


(...) Mi deseo eres tu mi Cristo


                      e|------------------|
                      B|------------------|
                      G|--9--9--0--9--10--|
                      D|--9--9--7--9--10--|
                      A|------------------|
                      E|------------------|


PRE-CORO

En esta parte del precoro se le quita el delay
y todos los instrumentos hacen sus frases en unisono.

Todo el tiempo,


e|--10--10--|
B|--10--10--|
G|---7---7--|
D|---7---7--|
A|----------|
E|----------|

esperando

e|--10--10--|
B|--10--10--|
G|---7---7--|
D|---7---9--|
A|----------|
E|----------|

tu amor sin condición

e|--13--|             e|--10--10--10--10--10--|
B|--13--|             B|--10--10--10--10--10--|
G|--12--|             G|--12--10--12--10--12--|
D|--10--|             D|--12--10--12--10--12--|
A|------|             A|----------------------|
E|------|             E|----------------------|

En esta parte le ponen Wah y hacen mas movimientos con la mano.

cada momento

e|--10--10--|
B|--10--10--|
G|---7---7--|
D|---7---7--|
A|----------|
E|----------|

yo te deseo

e|--15--| e|--13--|
B|--15--| B|--13--|
G|--12--| G|--10--|
D|--12--| D|--10--|
A|------| A|------|
E|------| E|------|

yo te deseo

e|--8--|
B|--8--|
G|--5--|
D|--5--|
A|-----|
E|-----|

Esta es F y G

e|------| e|------|
B|------| B|------|
G|--10--| G|--12--|
D|--10--| D|--12--|
A|---8--| A|--10--|
E|------| E|------|

CORO

tienen que quitarle el delay.

Tu estas conmigo

Esta es C

e|-----|
B|-----|
G|--5--|
D|--5--|
A|--3--|
E|-----|

tu me ayudas

Esta es D

e|-----|
B|-----|
G|--7--|
D|--7--|
A|--5--|
E|-----|

me sostienes

Esta es A

e|------|
B|--10--|
G|---9--|
D|---7--|
A|------|
E|------|

eres todo para mi

Esta es G

e|-----|
B|-----|
G|-----|
D|--5--|
A|--5--|
E|--3--|

en los tiempos de dolor

Esta es C

e|-----|
B|-----|
G|--5--|
D|--5--|
A|--3--|
E|-----|

me cuidas

Esta es G

e|-----|
B|-----|
G|-----|
D|--5--|
A|--5--|
E|--3--|

me protejes

Esta es D

e|-----|
B|-----|
G|--7--|
D|--7--|
A|--5--|
E|-----|

Esta es F

e|------|
B|------|
G|--10--|
D|--10--|
A|---8--|
E|------|

eres todo para mi

Esta es Am


e|------|
B|--10--|
G|---9--|
D|--10--|
A|------|
E|------|


PUENTE

Le ponen delay.

Tu estas conmigo eres mi amigo, eres mi amigo

e|-----------------------------------|
B|-----20---18~-17-------------------|
G|--17---17--------19-17-------17----|
D|-----------------------17-18----18-|
A|-----------------------------------|
E|-----------------------------------|

Tu estas

Esta es A menor

e|-----|
B|--1--|
G|--2--|
D|--2--|
A|-----|
E|-----|

conmigo

Esta es C

e|-----|
B|-----|
G|--5--|
D|--5--|
A|--3--|
E|-----|

eres mi amigo

Esta es D

e|-----|
B|-----|
G|--7--|
D|--7--|
A|--5--|
E|-----|

eres mi amigo

Esta es F

e|-----|
B|-----|
G|-----|
D|--3--|
A|--3--|
E|--1--|

Esta es G

e|-----|
B|-----|
G|-----|
D|--5--|
A|--5--|
E|--3--|

SOLO

La guitarra 2 es la que hace el punteo mientras esta hace el peso.

le quitan el delay.

Esta es C

e|-----|
B|-----|
G|--5--|
D|--5--|
A|--3--|
E|-----|

Esta es D

e|-----|
B|-----|
G|--7--|
D|--7--|
A|--5--|
E|-----|

Esta es F

e|-----|
B|-----|
G|-----|
D|--3--|
A|--3--|
E|--1--|

Esta es G

e|--3--|
B|--3--|
G|-----|
D|-----|
A|--2--|
E|--3--|

CORO

tienen que quitarle el delay.

Tu estas conmigo

Esta es C

e|-----|
B|-----|
G|--5--|
D|--5--|
A|--3--|
E|-----|

tu me ayudas

Esta es D

e|-----|
B|-----|
G|--7--|
D|--7--|
A|--5--|
E|-----|

me sostienes

Esta es A

e|------|
B|--10--|
G|---9--|
D|---7--|
A|------|
E|------|

eres todo para mi

Esta es G

e|-----|
B|-----|
G|-----|
D|--5--|
A|--5--|
E|--3--|

en los tiempos de dolor

Esta es C

e|-----|
B|-----|
G|--5--|
D|--5--|
A|--3--|
E|-----|

me cuidas

Esta es G

e|-----|
B|-----|
G|-----|
D|--5--|
A|--5--|
E|--3--|

me protejes

Esta es D

e|-----|
B|-----|
G|--7--|
D|--7--|
A|--5--|
E|-----|

Esta es F

e|------|
B|------|
G|--10--|
D|--10--|
A|---8--|
E|------|

eres todo para mi

Esta es Am


e|------|
B|--10--|
G|---9--|
D|--10--|
A|------|
E|------|


Esta es F

e|------|
B|------|
G|--10--|
D|--10--|
A|---8--|
E|------|

Bueno en esta parte termina con un slide \, y esa es toda la canción,
el esfuerzo que hice por aprenderme esta canción fue grande por eso
quiero que les sea mas fácil espero que la entiendan cualquier
recomendación comenten.

Bendiciones Att: Jordan Andres Covilla Ardila

Visiten mi pagina web: 
Suggest correction
Give kudos to tab author, rate the tab!
1 2 3 4 5
comments
print report bad tab
guest
Wanna post a correction for this tab? Suggest correction