Oops, an error
Loading. Please wait.

Hacedor De Milagros Tab

version 1
version 1

Whole song

51 views 3 this week
no commentswrite comment
1 2 3 4 5
3 more votes to show rating
add to favorites
launch autoscroll
font size
0
reset
how to read this tab
guitar tuner
Autoscroll
slow
fast
+/-
esc
set tempo
stop
Help us to improve Ultimate-Guitar.com Take our survey!
×
La Canción esta en Dm

e|-------------------------------------
B|----------------|--------------------|
G|----7-6-7--15´--|--7-6-7-6-7--15´-12-|
D|----------------|--------------------|
A|-------------------------------------
E|-------------------------------------

         A#       |       Gm           |
e-------------------------------------------|
B-- -----------|-------------|--------------|
G-17--------12-|-15-14-12-10-|-11´ 11 12 14-|
D----14-15-----|-------------|--------------|
A-------------------------------------------|
E-------------------------------------------|
       C       |     F       |       D/F#   |


 e|----------------------------------------
B|---------------------------|------------|
G|--15-17-15-14-12 (12-14-12)|-9´-9-10-12-|
D|---------------------------|------------|
A|-----------------------------------------
E|-----------------------------------------

           Gm                |    C       |


e|-----------------------------------------|
B|------------|-------------------------- -|
G|--14-15-14´-|----------------------------|
D|------------|-11-12-11-11---14-15-14-14--|
A|-----------------------------------------|
E|-----------------------------------------|

       F      |           Am7              |


e|-----------------------------|
B|----------------14-15-14-14--|
G|---14-15-14-14---------------|
D|-----------------------------|
A|-----------------------------|
E|-----------------------------|

           A

Saludos, espero que les sea de bendición.
Bendiciones a todos
Iglesia Centro Familiar de Adoración Cristiana
Bolivar -  - Argentina
Suggest correction
Give kudos to tab author, rate the tab!
1 2 3 4 5
comments
print report bad tab
guest
You may want to rate the tab now too:
select rating
Wanna post a correction for this tab? Suggest correction