Oops, an error
Loading. Please wait.

Hacedor De Milagros Tab

version 2
version 2

Whole song

82 views 1 this week
no commentswrite comment
1 2 3 4 5
3 more votes to show rating
add to favorites
launch autoscroll
font size
0
reset
how to read this tab
guitar tuner
×
Best way to learn
"Hacedor De Milagros"
Autoscroll
slow
fast
+/-
esc
set tempo
stop
NOTA: RE

**** LA GUITARRA ENTRA ACA **** UN POCO ANTES DE...

NO TENGO MAS... PERO PUEDO VER...
LAS MANOS DE EL HACEDOR DE MILAGROS...

*******************************

SANTO...TU ERES SANTO
e|----------------------------------|------------------6---6---6---6---|
B|-6---6---6---6---5---5---5---5----|-6---6---6---6--------------------|
G|---7---7---7---7---6---6---6---6--*---7---7---7---7----7---7---7---7-|
D|----------------------------------*----------------------------------|
A|----------------------------------|----------------------------------|
E|----------------------------------|----------------------------------|

e|-----------------5---5---5---5----|----------------------------------|
B|-6---6---6---6--------------------|-6---6---8---6---5---5---5---5----|
G|---7---7---7---7---7---7---7---7--|---7---7---7---7---6---6---6---6--*
D|----------------------------------|----------------------------------*
A|----------------------------------|----------------------------------|
E|----------------------------------|----------------------------------|

...SI ERES ASTUTO SABRAS COMO GUIARTE EN TODO EL CICLO

****TERMINA CUANDO DICE****
SALVAME...SANAME...ESTOY A TUS PIES HACEDOR DE MILAGROS
****Y EMPIEZA ESTO*****¨***

SI HAS ESCUCHADO LA CANCION SABRAS COMO GUIARTE Y NO TENDRAS PROBLEMAS

e|----------|----------5h6h5h6h5-------------------------|
B|-6-5-3-5--|-6---6--3-------------6----6h8h6h8h6--------|
G|----------*---7----------------7---7-------------------|
D|----------*--------------------------------------------|
A|----------|--------------------------------------------|
E|----------|--------------------------------------------|

CUANDO LA CANCION SE MALEA Y SE RAYAN TODOS LOS INSTRUMENTOS
UNA GUITARRA SIGUE HACIENDO ESTO OTRA PUEDE IR RASGUEANDO...

*******************************************************
D5            A5   D5             A5
TU ERES SANTO   ,  TU ERES SANTO

A#5        G5    F5       A5
QUIEN FUE, Y ES, Y QUIEN, SERÁ


******POR SI ACASO LES ANOTO ESTAS NOTAS QUINTAS*******

   D5  A5   A#5 G5 F5 A5
e|---------|----------------------------------------------|
B|-3-------|----------------------------------------------|
G|-2---2---|--3--------2----------------------------------|
D|-0---2---|--3--5--3--2----------------------------------|
A|-----0---|--1--5--3--0----------------------------------|
E|---------|-----3--1-------------------------------------|


**************CUANDO ENTRA EL SOLO DE PIANO(ORGANO STRING O COMO SE
LLAME), SOLO SE SIENTEN O POR LO MENOS YO SOLO SIENTO RASGUEOS, LAS
NOTITAS QUINTAS QUE LES HE PUESTO ACA ARRIBITA, DE AHI EMPIEZA EL
SOLO DE GUITARRA, ESCUCHENLO VARIAS VECES PARA QUE NO SE PALTEEN CON
LOS TIEMPOS.
***********************************************************


*** SOLO ***

e|-----------------------------------------------------------------|
B|---11-------11--8--13-13-13-13-5-6--8--11--10-8-6-7--8--7--8--10-|
G|-7----7-6-7------------------------------------------------------|
D|-----------------------------------------------------------------|
A|-----------------------------------------------------------------|
E|-----------------------------------------------------------------|


e|---------------------------------------------------------------|
B|-13--11-10-8--8h10---6-8-6-8---2-3-2-2----5-6-5-5----9-10-9-9--|
G|-------------------7-------------------------------------------|
D|---------------------------------------------------------------|
A|---------------------------------------------------------------|
E|---------------------------------------------------------------|


e|----------------14----13-|
B|13--14--13--13-----------|
G|-------------------------|
D|-------------------------|
A|-------------------------|
E|-------------------------|


**** LOS TIEMPOS ESTAN MAL ASI QUE NO ME CRITIQUEN ****
         ESCUCHEN LA CANCION Y ASUNT0 ARREGLADO

BUENO ESTA TODA LA CANCION, DESPUES DEL SOLO, SOLO SIGUEN RASGUEOS,
LOS RASGUEOS QUE LES HE PUESTO ARRIBA HASTA QUE CIERRA EN LA5.

Y TODOS SE CALLAN SOLO SE QUEDA LA VOZ Y EL PIANO Y AHI TERMINA

LA CANCION.

ESPERO LES SEA DE AYUDA.

SALUDOS DE PERU.

DAVID RODOLFO TORRES PALAO

....A DIOS SEA TODA LA GLORIA....
Suggest correction
Give kudos to tab author, rate the tab!
1 2 3 4 5
comments
print report bad tab
guest
You may want to rate the tab now too:
select rating
Wanna post a correction for this tab? Suggest correction