Oops, an error
Loading. Please wait.

Hacedor De Milagros Tab

version 3
version 3

Whole song

44 views 1 this week
no commentswrite comment
1 2 3 4 5
3 more votes to show rating
add to favorites
launch autoscroll
font size
0
reset
how to read this tab
guitar tuner
×
Best way to learn
"Hacedor De Milagros"
Autoscroll
slow
fast
+/-
esc
set tempo
stop
Hola aqui les recomiendo q toquen todas las notas en cejilla
los punteos son en la nota.


     Dm          A                 Dm          A
     Espero      aquí        Tu  puedes     cambiar

e|-----------------------------------------------------------
B|-----666666----------------------666666--------------------
G|----7-------------666666--------7------------666666--------
D|---7------------7--------------7------------7--------------
A|---------------7---------------------------7---------------
E|-----------------------------------------------------------


         Bb              Gm         F    A
      Mi aflicción puedes restaurarme


e|----------------------------------------------------------
B|-----------------------------------999999-----------------
G|-----777777----------333333----10------------666666--------
D|----8---------------5--------10-------------7--------------
A|---8---------------5-----------------------7---------------
E|-----------------------------------------------------------

  Dm     A      Dm     A
Un toque yo necesito hoy

e|-----------------------------------------------------------
B|-----666666----------------------666666--------------------
G|----7-------------666666--------7------------666666--------
D|---7------------7--------------7------------7--------------
A|---------------7---------------------------7---------------
E|-----------------------------------------------------------

 Bb                  Gm
No tengo mas, pero puedo ver

e|------------------------------
B|------------------------------
G|-----777777----------333333---
D|----8---------------5---------
A|---8---------------5----------
E|------------------------------

 F               A
Las manos de el Hacedor de Milagros

e|-------------------------------
B|--------999999-----------------
G|-----10------------666666------
D|--10-------------7-------------
A|---------------7---------------
E|-------------------------------
Se da un rasguido a la nota y se hace el punteo de abajo.
pre-coro
 Dm  A          D   A
 Santo, tu eres santo
e|----------------------------
B|6-5-----------6-5-----------
G|---7-------------7----------
D|----7-------------7---------


se da un rasguido y se hace el punteo
      Bb    Gm      F      A
Quien fue y es y quien vendrá

e|-------8-6---5-3----------------
B|--------------------------------

  Dm  A          D   A
  Santo, tu eres santo
e|----------------------------
B|-6-5-----------6-5-----------
G|----7-------------7----------
D|-----7-------------7---------

  Bb      Gm        F
  Sálvame sáname estoy a tus pies

e|---8-6------5-3------------
B|---------------------------

   A
Hacedor de Milagros

   Dm      A    Dm       A
Me sostendré aferrado a ti

e|------------------------------
B|----6-5----6-5-----------
G|-------7------7----------
D|--------7------7---------

    Bb            Gm       F    A
Tu rió DIOS puede restaurarme   OOOOOUUOOH
e|------8-6----------5-3------------
B|----------------------------------
En esta parte puedes hacer la quintas que quieras
mientras dures el tiempoq es.
Coro:
   Dm  A          D   A
  Santo, tu eres santo

e|-------------------------------
B|------------------------------
G|--7-------------7---------------
D|--7--7----------7-----7-----------
A|--5--7----------5-----7-----------
E|-----5----------------5----------

      Bb    Gm      F      A
Quien fue y es y quien vendrá
e|-------------------------------
B|------------------------------
G|-----------------10-10------------
D|--8-8-----5-5----10-10---7-7-----------
A|--8-8-----5-5----8--8----7-7---------
E|--6-6-----3-3------------5-5---------
Dm  A          D   A
Santo, tu eres santo
e|-------------------------------
B|------------------------------
G|--7-------------7---------------
D|--7--7----------7-----7-----------
A|--5--7----------5-----7-----------
E|-----5----------------5----------
Bb      Gm        F
Sálvame sáname estoy a tus pies
e|-------------------------
B|-------------------------
G|-----------------10-10---
D|--8-8-----5-5----10-10---
A|--8-8-----5-5----8--8----
E|--6-6-----3-3------------
    A
Hacedor de Milagros
e|------------
B|-------------
G|-------------
D|--7-7--------
A|--7-7---------
E|--5-5---------

**Solo**

e|----------------------------------------------------------
B|---------------------------------------------------------
G|-7-7/15----7-5-7-7/15--12-12/17------------15-14-12-10---
D|---------------------------------14-15-17----------------
A|---------------------------------------------------------
E|---------------------------------------------------------

e|----------------------------------------------
B|----------------------------------------------
G|-11-12-14-12-14/17-15-14-12-------------------
D|----------------------------14-15/17-15-17----
A|----------------------------------------------
E|----------------------------------------------

e|----------------------------------------------------------
B|------------------------------17-18-17--------------
G|-7-6-7---10-9-10-15-14-15-14---------------------------------------
D|--------------------------------------------------
A|-------------------------------------------------------
E|-----------------------------------------------------------

Dios los bendiga
Suggest correction
Give kudos to tab author, rate the tab!
1 2 3 4 5
comments
print report bad tab
guest
You may want to rate the tab now too:
select rating
Wanna post a correction for this tab? Suggest correction