Oops, an error
Loading. Please wait.

Me Escogiste Chords

version 1
version 1

Whole song

134 views 1 this week
no commentswrite comment
1 2 3 4 5
3 more votes to show rating
add to favorites
launch autoscroll
font size
0
reset
transpose
0
reset
display chords
guitar tuner
×
Best way to learn
"Me Escogiste"
Autoscroll
slow
fast
+/-
esc
set tempo
stop
TONO= D

PRIMERA PARTE DE INTRO

E -10s17--17-15------10s17--17-15----|
B -------------15----------------15--|
G -----------------------------------|
D -----------------------------------|
A -----------------------------------|
E -----------------------------------|

SEGUNDA                        ÚLTIMA

E -12s14-10-12--10s9-9-10 --x3-|----15s17---15-------|
B -----------------------------|---------------15-17-|
G -----------------------------|---------------------|
D -----------------------------|---------------------|
A -----------------------------|---------------------|
E -----------------------------|---------------------|

INTRO: 1.D
       2.D C#m Em Bm A

D                    C#m
Tu viste algo en mi algo que yo no vi,
Em                Bm             G
me diste libertad por la eternidad.
D               A
Quitaste el dolor,
                  Bm
sanaste mi interior,
                         G
por siempre yo te entregaré mi corazón.
Em                            G
Y me escogiste, tu me escogiste.

CORO
D                   A
Y yo te doy mi corazón,
                         Em
te entrego todo lo que soy,
                  Bm
solo tu me llamaste,
                  A
solo tu me llamaste.

D                    A                         Em
Toda mi vida es para ti por siempre yo te serviré,
                 Bm
solo tu me llamaste,
                 G
solo tu me llamaste.


PUENTE
Em                  C
Ahora tengo tu visión,
                    G
puedo ver como tu ves,
                     A
todos correrán a ti mi Salvador.

ULTIMO CORO

D A Em Bm A
D C Em Bm A

Espero que haya sido de gran Bendición para ustedes y que les sirva.
Desde Cejes Bucaramanga
Suggest correction
Give kudos to tab author, rate the tab!
1 2 3 4 5
comments
print report bad tab
guest
You may want to rate the tab now too:
select rating
Wanna post a correction for this tab? Suggest correction