Oops, an error
Loading. Please wait.

Mi Manantial Chords

version 3
version 3

Whole song

42 views 1 this week
no commentswrite comment
1 2 3 4 5
3 more votes to show rating
add to favorites
launch autoscroll
font size
0
reset
transpose
0
reset
simplify chords
display chords
guitar tuner
×
Best way to learn
"Mi Manantial"
Autoscroll
slow
fast
+/-
esc
set tempo
stop
Intro:
      C              F
e)|-------3------3-4------3------3--------------|
B)|---------------------------------5-----------|
G)|--4h5----4h5------4h5----4h5-----------------|
D)|---------------------------------------------|
A)|---------------------------------------------|
E)|---------------------------------------------|


Estrofa:

    C             F         C          F
  Quiero tu presencia, necessito tu ayuda,

           Em           F                Am          F
  eres mi manantial de vida , en ti yo puedo descansar.


pre-coro:

   F               G     F               G
  tu que estas en mi,   mi amor es para ti ,

   Dm7          Em7              F
  yo vivire por ti ,  todos mis dias ,

              G
  para adoraaaarteeeee.

  Coro:

  C                        G/B
 Mi manantial eres tu ,   tu llenas todo mi ser ,

  Dm                  F
 sanaste mi corazón, eres mi adoración.

  C                       G/B
 Mi manantial eres tu ,  tu llenas todo mi ser ,

   Dm                   F
 eres mi fuente de amor,eres mi adoración.


Se repite lo mismo del intro:
      C              F
e)|-------3------3-4------3------3--------------|
B)|---------------------------------5-----------|
G)|--4h5----4h5------4h5----4h5-----------------|
D)|---------------------------------------------|
A)|---------------------------------------------|
E)|---------------------------------------------|


Estrofa:

 C              F           C        F
  Quiero tu presencia, necessito tu ayuda,

           Em           F               Am          F
  eres mi manantial de vida , en ti yo puedo descansar.


pre-coro:


  F               G     F               G
  tu que estas en mi,   mi amor es para ti ,

   Dm7          Em7              F
  yo vivire por ti ,  todos mis dias ,

              G
  para adoraaaarteeeee.


coro:

 C                        G/B
 Mi manantial eres tu ,   tu llenas todo mi ser ,

  Dm                  F
 sanaste mi corazón, eres mi adoración.

  C                       G/B
 Mi manantial eres tu ,  tu llenas todo mi ser ,

   Dm                   F
 eres mi fuente de amor,eres mi adoración.


ESTO VA ANTES DE ENTRAR AL PUENTE:  C - F//


Puente:

     Am               G/B                  Dm
  // Mi fuente eres tu ,  mi fuente de amor

                     F                  Am
      mi fuente eres tu,  mi fuente de amor.// x2

  ( luego entra la bateria  ) y sigue haciendo el puente   x3


Solo:

    Am                   G/B                    Dm
e)|---------15-15-15-15-----------15-15-15-15--12-12-12-12-12-12-12-12-
B)|--------------------------------------------------------------------
G)|-12-12-12-------------12-12-12--------------------------------------
D)|--------------------------------------------------------------------
A)|--------------------------------------------------------------------
E)|--------------------------------------------------------------------

    F                        Am                  G/B
e)|-10-10-10--12-12-12-12------------------------------------------------
B)|-----------------------------------8-8------------------10-10---------
G)|-------------------------7h9-7h9-9-----9-9-9--7h9-7h9-9-------9-9-9---
D)|----------------------------------------------------------------------
A)|----------------------------------------------------------------------
E)|----------------------------------------------------------------------

    Dm                       F
e)|--------------------------12----12-----15-15----------------------||
B)|-----------8-8-------8s13----13----13--13-13----------------------||
G)|-7h9-7h9-9-----9-9-9--------------------------------------------||
D)|------------------------------------------------------------------||
A)|------------------------------------------------------------------||
E)|------------------------------------------------------------------||


coro:

 C                        G/B
 Mi manantial eres tu ,   tu llenas todo mi ser ,

  Dm                  F
 sanaste mi corazón, eres mi adoración.

  C                       G/B
 Mi manantial eres tu ,  tu llenas todo mi ser ,

   Dm                   F
 eres mi fuente de amor,eres mi adoración.


Se repite lo mismo del intro:
      C              F
e)|-------3------3-4------3------3--------------|
B)|---------------------------------5-----------|
G)|--4h5----4h5------4h5----4h5-----------------|
D)|---------------------------------------------|
A)|---------------------------------------------|
E)|---------------------------------------------|
Suggest correction
Give kudos to tab author, rate the tab!
1 2 3 4 5
comments
print report bad tab
guest
You may want to rate the tab now too:
select rating
Wanna post a correction for this tab? Suggest correction