Oops, an error
Loading. Please wait.

Mi Manantial Tab

50 views 1 this week
no commentswrite comment
1 2 3 4 5
3 more votes to show rating
add to favorites
launch autoscroll
font size
0
reset
how to read this tab
guitar tuner
Autoscroll
slow
fast
+/-
esc
set tempo
stop
Help us to improve Ultimate-Guitar.com Take our survey!
×
INTRO (4 COMPASES) C-F
En el intro, la guitarra eléctrica principal usa el efecto Delay.

e||------3-----3--5-|-----3-----3----||
B||-----------------|--------------5-||
G||--4/5---4/5------|-4/5---4/5------||
D||-----------------|----------------||
A||-----------------|----------------||
E||-----------------|----------------||


ESTROFA
C            F         C        F
Quiero tu presencia, necesito tu ayuda
        Em         F               Am            F
Eres mi manantial de vida, en ti yo puedo descansar


PRE-CORO
F            G  F          G
Tu estás en mi, mi amor es para ti,
Dm            Em            F            G
yo viviré por ti todos mis días para adorarte


CORO
C                    G/B
Mi manantial eres tu, tu llenas todo mi ser,
Dm                  F
 sanaste mi corazón, eres mi adoración
C                    G/B
Mi manantial eres tu, tu llenas todo mi ser,
Dm                      F
 eres mi fuente de amor, eres mi adoración.


e||------3-----3--5-|-----3-----3----||
B||-----------------|--------------5-||
G||--4/5---4/5------|-4/5---4/5------||
D||-----------------|----------------||
A||-----------------|----------------||
E||-----------------|----------------||


ESTROFA
C            F         C        F
Quiero tu presencia, necesito tu ayuda
        Em           F             Am            F
Eres mi manantial de vida, en ti yo puedo descansar


PRE-CORO
F            G  F          G
Tu estás en mi, mi amor es para ti,
Dm            Em            F            G
yo viviré por ti todos mis días para adorarte


CORO
C                    G/B
Mi manantial eres tu, tu llenas todo mi ser,
Dm                      F
 sanaste mi corazón, eres mi adoración
C                    G/B
Mi manantial eres tu, tu llenas todo mi ser,
Dm                  F
 eres mi fuente de amor, eres mi adoración.


PUENTE
Am                G/B
Mi fuente eres tu, mi fuente de amor.
Dm                 F
 Mi fuente eres tu, mi fuente de amor.


Luego de tocar el puente dos veces, el puente
continúa 3 veces más con este punteo.

   Am       G/B      Dm      F
e||8-------|7-------|5------|3-------||
B||--------|--------|-------|--------||
G||--------|--------|-------|--------||
D||--------|--------|-------|--------||
A||--------|--------|-------|--------||
E||--------|--------|-------|--------||


Solo

e||----------------------------------------------------------------|
B||-8-8-8s20---8-8-8s20---17-17-17-17-17-17-17-17-15-15-15--17-17--|
G||----------------------------------------------------------------|
D||----------------------------------------------------------------|
A||----------------------------------------------------------------|
E||----------------------------------------------------------------|

e||----------------------------------------------|
B||----------8--------------10--------------8----|
G||-7-9-7-9----9---7-9-7-9-----9---7-9-7-9----9--|
D||----------------------------------------------|
A||----------------------------------------------|
E||----------------------------------------------|

e||-------------------|
B||-15--15--18--18----|
G||---15--15--16--16--|
D||-------------------|
A||-------------------|
E||-------------------|


CORO
C                    G/B
Mi manantial eres tu, tu llenas todo mi ser,
Dm                      F
 sanaste mi corazón, eres mi adoración
C                    G/B
Mi manantial eres tu, tu llenas todo mi ser,
Dm                  F
 eres mi fuente de amor, eres mi adoración.


En el final se repite el intro 2 veces

e||------3-----3--5-|-----3-----3----||
B||-----------------|--------------5-||
G||--4/5---4/5------|-4/5---4/5------||
D||-----------------|----------------||
A||-----------------|----------------||
E||-----------------|----------------||
Suggest correction
Give kudos to tab author, rate the tab!
1 2 3 4 5
comments
print report bad tab
guest
You may want to rate the tab now too:
select rating
Wanna post a correction for this tab? Suggest correction