Oops, an error
Loading. Please wait.

Mi Refugio Tab

version 2
version 2

Whole song

72 views 1 this week
no commentswrite comment
1 2 3 4 5
3 more votes to show rating
add to favorites
launch autoscroll
font size
0
reset
how to read this tab
guitar tuner
Autoscroll
slow
fast
+/-
esc
set tempo
stop
Intro:
e|------------------------------------|
B|--------4-3----------------4-3-6----|
G|------5-----5-3/5--------5----------|
D|--3-5----------------3/5------------|
A|------------------------------------|
E|------------------------------------|

Esto hace la primera guitarra hasta donde dice:
"Tu me lavantas me sostienes.."

Esto hace la 2da guitarra.
Cm
Aunque la tierra y los mares se estremezcan
 Cm
Aunque los vientos y las olas se levanten
Eb/G   Ab
Mi corazón permanece en ti confiado
Eb/G   Ab
Pues siempre permaneces a mi lado


Aqui entran las 2 guitarras y la acustica
 Cm
Tu me levantas me sostienes me ayudas
 Cm
Siento tus fuerzas hoy corriendo por mis venas
Eb/G   Ab
No temeré lo que pueda hacerme daño
Eb/G   Ab
Pues siempre tú permaneces a mi lado

 Eb       Bb   Cm         Ab
Tú mi Refugio, Tú mi Fortaleza
 Cm  Ab    Eb  Bb  Cm     Ab   Eb    Bb
Cantaré y bailaré, yo me alegraré en ti

 Eb       Bb   Cm         Ab
Tú mi Refugio, Tú mi Fortaleza
 Cm  Ab    Eb  Bb  Cm     Ab   Eb    Bb
Cantaré y bailaré, yo me alegraré en ti


En ?Cantaré y bailaré?, hace esto:
e|-------------------------10-11-10---------------------------|
B|-----13----13----13---13------------13----13----13v---------|
G|--------12----12----12-----------------12----12-------------|
D|------------------------------------------------------------|
A|------------------------------------------------------------|
E|------------------------------------------------------------|


Después del primer par de coros hace esto:
e|--15-15-15--------------------------------------16-16--|
B|------------16-16-16-16----------------15-15-15--------|
G|--------------------------15-15-15-15------------------|
D|-------------------------------------------------------|
A|-------------------------------------------------------|
E|-------------------------------------------------------|


y se repite hasta el coro


final:
e|---------------------------|
B|---------------------------|
G|---3h5-5-3-3h5---3-3h5-3---|x3veces
D|---------------------------|
A|---------------------------|
E|---------------------------|

y termina con:
e|-------------|
B|-------------|
G|---5-5-3-5---|
D|---x-x-x-x---|
A|---3-3-1-3---|
E|-------------|


Weno esta es una pekeña correccion de la tablatura anterior
y es un aporte en cuanto a la alabamza de nuestro Dios
cualkier duda o sugerencia pueden escribirme a mi correo
hs306_66@
Ke Dios los Bendiga grandemente! y musicos sigan adelante!

Hans Steven De La Cruz
Lima - Peru
Suggest correction
Give kudos to tab author, rate the tab!
1 2 3 4 5
comments
print report bad tab
guest
Wanna post a correction for this tab? Suggest correction