Oops, an error
Loading. Please wait.

Que Tu Gozo Venga Tab

27 views 1 this week
no commentswrite comment
1 2 3 4 5
3 more votes to show rating
add to favorites
launch autoscroll
font size
0
reset
how to read this tab
guitar tuner
×
Best way to learn
"Que Tu Gozo Venga"
Autoscroll
slow
fast
+/-
esc
set tempo
stop
G12
"Que tu gozo venga a mi"

e|----------------------------------------
B|----------------------------------------
G|----------------------------------------
D|-0(7veces)------------------------------
A|-----------4(7veces)-2(14veces)---------
E|----------------------------------------

e|----------------------------------------
B|----------------------------------------
G|----------------------------------------
D|-0(7veces)-2(3veces)-4(5veces)----------
A|-----------------------------2(14veces)-
E|----------------------------------------

Solo(tiene q tocarse rapido)
e|-----10---10---10-12----12-14-- 14-----14-----14-14--14---14-
B|--10---10---10-------10------12---12-12----12------12---12---
G|-------------------------------------------------------------
D|-------------------------------------------------------------
A|-------------------------------------------------------------
E|-------------------------------------------------------------....X 2veces
Suggest correction
Give kudos to tab author, rate the tab!
1 2 3 4 5
comments
print report bad tab
guest
You may want to rate the tab now too:
select rating
Wanna post a correction for this tab? Suggest correction