Oops, an error
Loading. Please wait.

Tu Mano tab

version 2
version 2

Whole song

Interactive

39 views 1 this week
no commentswrite comment
1 2 3 4 5
3 more votes to show rating
add to favorites
×
Save as Personal and add changes to this tab that will be seen only by you. Learn more ›
×
You can save this tab as Personal to edit and correct it or add notes. All changes will be seen only by you. Learn more »
launch autoscroll
font size
0
reset
how to read this tab
guitar tuner
edit
Autoscroll
slow
fast
+/-
esc
set tempo
stop
INTRO: Em7 - C - G - D/F#

INTRO GUITARRA:

e|--------15-----15----15----15----15----15--|
B|-------------------------------------------|
G|-------------------------------------------|
D|--12h14----14----14----14----14----14----14|   (X 7 veces)
A|-------------------------------------------|
E|-------------------------------------------|

ESTROFA

 Em7     C     G
Escucha hoy mi oración
D/F#
Ven y sálvame
 Em7      C         G
Vuelve a oír mi clamor
D/F#
Ven y sálvame
 Em7     C        G
Mi Aflicción y mi Dolor
     D/F#       Em7
Te entrego hoy a ti
          C            G               D/F#
Para que tú me cambies hoy, me cambies hoy


CORO

  Am7     C        G
Tu mano sobre mi vida
 D/F#          Am7       C
Me guarda, me ama, me cuida
   G       D/F#
Tu mano tu mano

e|--------15-----15----15----15----15----15--|
B|-------------------------------------------|
G|-------------------------------------------|
D|--12h14----14----14----14----14----14----14|   (X 2 veces)
A|-------------------------------------------|
E|-------------------------------------------|

ESTROFA (VOZ HOMBRE)

 Em7     C     G
Escucha hoy mi oración
D/F#
Ven y sálvame
 Em7      C         G
Vuelve a oír mi clamor
D/F#
Ven y sálvame
 Em7     C        G
Mi Aflicción y mi Dolor
     D/F#       Em7
Te entrego hoy a ti
          C            G               D/F#
Para que tú me cambies hoy, me cambies hoy

CORO

  Am7     C        G
Tu mano sobre mi vida
 D/F#          Am7       C
Me guarda, me ama, me cuida
   G       D/F#
Tu mano tu mano

CORO 2 - ?Voz Arriba?

  Am7    C        G
Tu mano sobre mi vida
 D/F#          Am7       C
Me guarda, me ama, me cuida     (X 2 veces)
   G/B      D
Tu mano tu mano

SOLO:(X 2 veces) ·los numeros entre parentesis es la cantidad de veces
                  que se toca la nota
                 ·el solo se toca en distorsion con la ganancia
                  aumentado

e|----------------------------------------------------|-----
B|-7-7-7-8-8-8-10-10--5-5-7-7-3v---3s12(8) 10(8)------|-7v--
G|----------------------------------------------------|-----
D|----------------------------------------------------|-----
A|----------------------------------------------------|-----
E|----------------------------------------------------|-----

ESTRIBILLO
   Am7     C    G       D/F#
 En este día recibo tu bendición
  Am7     C    G/B       D
 En este día recibo tu unción
  Am7     C    G       D/F#        Am7
 En este día recibo tu bendició-on
     C    -   G/B -  D
 Tu bendición

e|--------15-----15----15----15----15----15--|
B|-------------------------------------------|
G|-------------------------------------------|
D|--12h14----14----14----14----14----14----14|   (X 4 veces)
A|-------------------------------------------|
E|-------------------------------------------|

Saludos a mi banda Los CDP y un abrazo
para mis pastor Jose Vicente Fique y mi
lider de alabanza Juan Carlos Fique...

Mil bendiciones para todos....

            
            
Suggest correction
Creating personal tab
Creating personal tab
You can edit any tab online and save it as your Personal.

You can edit, replace or remove any tab part or add personal notes – all changes will be seen only by you.

Personal tabs can be accessed anytime from any device, even offline.
Learn more »
Give kudos to tab author, rate the tab!
1 2 3 4 5
comments
print report bad tab
guest
Wanna post a correction for this tab? Suggest correction