Oops, an error
Loading. Please wait.

Tu Me Apasionas Chords

41 views 1 this week
no commentswrite comment
1 2 3 4 5
3 more votes to show rating
add to favorites
launch autoscroll
font size
0
reset
transpose
0
reset
display chords
guitar tuner
×
Best way to learn
"Tu Me Apasionas"
Autoscroll
slow
fast
+/-
esc
set tempo
stop
bueno esta es mi primera transcripción.
espero que les guste.

intro:B - Bsus4 el tiempo de la cancion es 142 en la negra
con delay que responda en
corcheas y puntillo
intro:

B-5-4----5-4----4----
G-----4------4----4--x4

B - F# - G# - E

E-14-14-14----------11-11-11------------12
B-------------12-12-12-----------11-11-11-----x3

B-s11-12-12-12-11-11-11-----------11-11-12
G------------------------11-11-11-

estrofa:

B                            F#
Me llenas con un gozo nuevo, una pasión dentro de mi.
G#m                            E
Tu Espíritu me esta llevando a cantar y a vivir para ti.
B                            F#
Cantare de lo que has hecho, proclamaré tu salvación,
G#m                           E
en mi interior corre tu fuego recibe Señor mi canción.

pre-coro:
F#         G#m          E                      F#         G#m      E
  Con todas mis fuerzas, te alabaré te cantaré, mi vida te entrego, yo

quiero vivir por ti.

coro:
B                          F#                    G#m
Tu me apasionas Dios, por siempre te serviré. Llenaste mi vida de un
 E                            F#-G#m-F#-E
gozo nuevo y hoy lo siento.

solo:
B----19-19-19----------16-16-16--------------19-19-19----------------
G------------16-16-16----------15-15-15---------------16-16-16-18-b18

B----19-19-19----------16-16-16-----------19-b19-19-s0
G------------16-16-16----------15-15-15---------------

ESPERO QUE LES GUSTE.... si necesitan
las notas del solo del coro pueden
 escribirme... reyesjuank@
bendiciones
Suggest correction
Give kudos to tab author, rate the tab!
1 2 3 4 5
comments
print report bad tab
guest
You may want to rate the tab now too:
select rating
Wanna post a correction for this tab? Suggest correction