Oops, an error
Loading. Please wait.

Tu Mi Dios Tab

40 views 1 this week
no commentswrite comment
1 2 3 4 5
3 more votes to show rating
add to favorites
launch autoscroll
font size
0
reset
how to read this tab
guitar tuner
×
Best way to learn
"Tu Mi Dios"
Autoscroll
slow
fast
+/-
esc
set tempo
stop
Gran canción, Gran letra, Gran grupo,
Aqui esta:

Simbologia:
-------------------------
s: slide
h: hammer
p: pull-off
(.): palm mute
~: dejar sonar
-------------------------

INTRO
(Em-D-A-C)

E|----------------------------------------------------------|
B|----5s7-7---7s8-8---8s7s5----5s7-7---7s8-8---10---10------|
G|----------9-------9----------------9-------9----9---------|
D|----------------------------------------------------------|
A|----------------------------------------------------------|
E|----------------------------------------------------------|

E|----------------------------------------------------------|
B|----5s7-7---7s8-8---8s7s5----7s10-10s5-5s10--10--8--8-----|
G|----------9-------9-------------------------9---9--9------|
D|----------------------------------------------------------|
A|----------------------------------------------------------|
E|----------------------------------------------------------|

VERSO 1
(Em-D-A)
(Em-D-A-C)

E|----10-12---12---12---12-------3--5--5--5--5----------|
B|----------10---10---10---10---------5--5--5--5--------|
G|------------------------------------------------------|
D|--------------(x2)--------------------(x2)------------|
A|------------------------------------------------------|
E|------------------------------------------------------|
P.M.       .    .   .   .         .  .  .  .

E|----10-12---12---12---12--------7--7--7--7----|--777s0~--|
B|----------10---10---10---10-------7--7--7--7--|--777s0~--|
G|----------------------------------------------|----------|
D|--------------(x2)--------------------(x2)----|----------|
A|----------------------------------------------|----------|
E|----------------------------------------------|----------|
P.M.       .    .   .   .        .  . .  .


CORO
(Em-D-A)
(Em-D-A-C)

E|-------------------------------------------|
B|---55555555555-33333333333-22222222222-----|
G|---44444444444-22222222222-22222222222-----|  x3
D|---22222222222-22222222222-22222222222-----|
A|-------------------------------------------|
E|-------------------------------------------|

Y en la cuarta vez:
E|-----------------------------------------------------|
B|---55555555555-33333333333-55555555555-5555555555----|
G|---44444444444-44444444444-22222222222-5555555555----|
D|---22222222222-22222222222-22222222222-2222222222----|
A|-----------------------------------------------------|
E|-----------------------------------------------------|


---INTRO----


VERSO 2
(Em-D-A)
(Em-D-A-C)

E|----7-7-7-7-7-7-7s10-10-10-10-10-10-9-9-9-7-9-9-9h10p9-9h10p9------|
B|-------------------------------------------------------------------|
G|-------------------------------------------------------------------|
D|-------------------------------------------------------------------|
A|-------------------------------------------------------------------|
E|-------------------------------------------------------------------|

E|----7-7-7-7-7-7-7s10-10-10-10-10-10-12-12-10-12-12-----|
B|-------------------------------------------------------|
G|-------------------------------------------------------|
D|-------------------------------------------------------|
A|-------------------------------------------------------|
E|-------------------------------------------------------|


----------CORO----------


INTERLUDIO

E|---12-10s7s5-3h5p3h5--12-10s17s15-14h15p14h15---|
B|------------------------------------------------|
G|------------------------------------------------|  x2
D|------------------------------------------------|
A|------------------------------------------------|
E|------------------------------------------------|

Esta parte acompaña el solo del teclado:
E|-----------------------------------------------------|
B|---55555555555-33333333333-55555555555-5555555555----|
G|---44444444444-44444444444-22222222222-5555555555----|
D|---22222222222-22222222222-22222222222-2222222222----|
A|-----------------------------------------------------|
E|-----------------------------------------------------|

Después viene el coro con palm mute:
E|-----------------------------------------------------|
B|---999999-77777-22222---99999-77777-22222-55555------|
G|---999999-77777-22222---99999-77777-22222-55555------|
D|---777777-55555-00000---77777-55555-00000-33333------|
A|-----------------------------------------------------|
E|-----------------------------------------------------|
P.M  ...... ..... .....   ..... ..... ..... .....

Se vuelve a repetir el coro asi:
E|---------------------------------------------|
B|---9--9~----2--2~---9--9~----2~-222-55555----|
G|---9--9~----2--2~---9--9~----2~-222-55555----|
D|---7--7~----0--0~---7--7~----0~-000-33333----|
A|---------------------------------------------|
E|---------------------------------------------|
P.M                               ...

-------CORO------

Y ahi termina la canción.
Bueno, ojala este correcta =)
Seguro sera de gran bendición para ustedes,
Dios lo bendiga :D
Suggest correction
Give kudos to tab author, rate the tab!
1 2 3 4 5
comments
print report bad tab
guest
You may want to rate the tab now too:
select rating
Wanna post a correction for this tab? Suggest correction