Oops, an error
Loading. Please wait.
7 views 1 this week
no commentswrite comment
1 2 3 4 5
3 more votes to show rating
add to favorites
launch autoscroll
font size
0
reset
how to read this tab
guitar tuner
×
Best way to learn
"Dios"
Autoscroll
slow
fast
+/-
esc
set tempo
stop
Dios

la primer estrofa la empieza la guitarra-electroacustica
y el teclado con un efecto string

Coro:
   A               E           F#        E
//Dios mas grande que mi respirar y mi vivir
A               E           F#         E
Dios el triunfara todos diran glorioso rey//
    D                           C#
y lo que tu haras lo viejo cambiaras
   B
todos creemos que eres


fig.1 (x2) esta parte la hacen el bass y la guitarra juntos
B-------------------------------------------------------------------------
E---2-2-2-0-2-4-----------4-2-2-2-0-2-4-----------4-----------------------
A---------------2-4---4-2---------------2-4---2-4---5-5-5-5-5-5-4-2-2-2-2-
D-------------------2-----------------------2-----------------------------
G-------------------------------------------------------------------------


 F#                                 D--C#--B
la tierra tiembla del poder de Dios
 F#                        D--C#--B
rey glorios todos canten ya
D                  C#
y lo que tu haras lo viejo cambiaras
  B
todos creemos que eres...

fig.1 (x1) esta parte la hacen el bass y la guitarra juntos
B-------------------------------------------------------------------------
E---2-2-2-0-2-4-----------4-2-2-2-0-2-4-----------4-----------------------
A---------------2-4---4-2---------------2-4---2-4---5-5-5-5-5-5-4-2-2-2-2-
D-------------------2-----------------------2-----------------------------
G-------------------------------------------------------------------------

 F#                                D--C#--B
los cielos se abren su reino vendra
 F#                          D--C#--B
los corazones hoy despertaran
D                   C#
y lo que tu haras lo viejo cambiaras
  B
todos creemos que eres...

puente:
     D             E              F#           G#
//glorioso rey, glorioso rey, glorioso rey, glorioso rey//

bueno esta es la rola que la vdd esta power,
solo ponganle mucha atencion en especial conla figura
 la cual la hace la guitarra con distorcion y
 la guitarra acustica creo en esa parte
se que da en F# uds. como quiera chequen bien. bueno es todo bye

dudas o aclaraciones jinzo3@
a y visita 
Suggest correction
Give kudos to tab author, rate the tab!
1 2 3 4 5
comments
print report bad tab
guest
You may want to rate the tab now too:
select rating
Wanna post a correction for this tab? Suggest correction