Oops, an error
Loading. Please wait.

Preséntamela Tab

41 views 1 this week
no commentswrite comment
1 2 3 4 5
2 more votes to show rating
add to favorites
launch autoscroll
font size
0
reset
how to read this tab
guitar tuner
Autoscroll
slow
fast
+/-
esc
set tempo
stop
Hola, ke tal... aki le spongo ezta rolita ke me late un buen.
Esopero la disfruten.


INTRO:

e|--------------------------------------------------|
B|--------------------------------------------------|
G|--------------------------------------------------|
D|--------------------------------------------------|
A|-2-4-2-4-2-4-4---2-4-3-4-2-5---2-4-2-4---2-4---5--|
E|-0-2-0-2-0-2-2---0-2-0-2-0-3---0-2-0-2---0-2---3--|

e|------------------------------------------|
B|------------------------------------------|
G|-----------------------------4-----5------| (X2)
D|---------------------------4---4-5---5----|
A|-2-4-4-2-4-4--2-4-2-5-5-5-----------------|
E|-0-2-2-0-2-2--0-2-0-3-3-3-----------------|


 e|--------------|         e|--------------|
 B|--------------|         B|--------------|
 G|--------------|         G|--------------|
 D|--------------|         D|--------------|
 A|-2-4-4-2-4-4--|         A|-2-4-2-5-5-5--|
 E|-0-2-2-0-2-2--|         E|-0-2-0-3-3-3--|

Presentame a tu jefa        la quiero conocer

B5
no le voy a hacer nada,
C5
es una gran mujer


 e|--------------|         e|--------------|
 B|--------------|         B|--------------|
 G|--------------|         G|--------------|
 D|--------------|         D|--------------|
 A|-2-4-4-2-4-4--|         A|-2-4-2-5-5-5--|
 E|-0-2-2-0-2-2--|         E|-0-2-0-3-3-3--|

Presentame a tu hermana     la quiero conocer

B5
no te preocupes,
        C5
te la trataré muy bien


 e|--------------|         e|--------------|
 B|--------------|         B|--------------|
 G|--------------|         G|--------------|
 D|--------------|         D|--------------|
 A|-2-4-4-2-4-4--|         A|-2-4-2-5-5-5--|
 E|-0-2-2-0-2-2--|         E|-0-2-0-3-3-3--|

Presentame a tu prima       la quiero conocer

B5
no le voy a hacer nada
 C5
aunque sería un placer


 e|--------------|         e|--------------|
 B|--------------|         B|--------------|
 G|--------------|         G|--------------|
 D|--------------|         D|--------------|
 A|-2-4-4-2-4-4--|         A|-2-4-2-5-5-5--|
 E|-0-2-2-0-2-2--|         E|-0-2-0-3-3-3--|

Presentame a tu tía         la quiero conocer

B5
mucho me han contado
        C5
de su gran saber!


 B5        C5
Hey! Hey! Hey! Hey!


e|------------------------------------------|
B|------------------------------------------|
G|-----------------------------4-----5------|
D|---------------------------4---4-5---5----|
A|-2-4-4-2-4-4--2-4-2-5-5-5-----------------|
E|-0-2-2-0-2-2--0-2-0-3-3-3-----------------|


 e|--------------|         e|--------------|
 B|--------------|         B|--------------|
 G|--------------|         G|--------------|
 D|--------------|         D|--------------|
 A|-2-4-4-2-4-4--|         A|-2-4-2-5-5-5--|
 E|-0-2-2-0-2-2--|         E|-0-2-0-3-3-3--|

Presentame a tu amiga      la quiero conocer

B5
si lleva compañia
C5
me la pasaré muy bien


 e|--------------|         e|--------------|
 B|--------------|         B|--------------|
 G|--------------|         G|--------------|
 D|--------------|         D|--------------|
 A|-2-4-4-2-4-4--|         A|-2-4-2-5-5-5--|
 E|-0-2-2-0-2-2--|         E|-0-2-0-3-3-3--|

Presentame a tu novia     la quiero conocer

B5
mucha carne para el perro
  C5
y yo sin nada que comer


 e|--------------|         e|--------------|
 B|--------------|         B|--------------|
 G|--------------|         G|--------------|
 D|--------------|         D|--------------|
 A|-2-4-4-2-4-4--|         A|-2-4-2-5-5-5--|
 E|-0-2-2-0-2-2--|         E|-0-2-0-3-3-3--|

Presentame a tu sobrina    la quiero conocer

B5
nunca ha sido mía
       C5
pero tiene muy buen ver


 e|--------------|         e|--------------|
 B|--------------|         B|--------------|
 G|--------------|         G|--------------|
 D|--------------|         D|--------------|
 A|-2-4-4-2-4-4--|         A|-2-4-2-5-5-5--|
 E|-0-2-2-0-2-2--|         E|-0-2-0-3-3-3--|

Presentame a tu hija        la quiero conocer

B5
puedes ser mi amigo
       C5
y mi suegro a la vez


 B5        C5
Hey! Hey! Hey! Hey!


B5 C5, B5 C5, B5 C5, B5 C5


    B5                  C5
Preséntame enfermeras,ejecutivas,
                           B5
siempre a las masajistas, deportistas,
    C5
preséntame a todas las especialistas,
  B5
meseras, futuras exhibicionistas,
    C5                  B5
presentame alpinistas, bailarinas,
                C5
pintoras, escritoras y señoras
    B5                 C5
preséntame pacifistas, anarquistas,
            B5
nadadoras, astronautas, o policias,
C5                        B5
costureras, tortilleras, ------- alfabetas,
 C5                      B5
recamareras, costureras, instructoras,
              C5
institruizes, enseñame tus cicatrices


B5 C5 D5 B5 C5 D5 B5 C5 D5 E5 C5


e|---------------------------------------------|
B|---------------------------------------------|
G|---------------------------------------------|
D|---------------------------------------------|
A|-2---5-2---5-2---5-2---5-2---5-2---5-2---5-2-|
E|---3-----3-----3-----3-----3-----3-----3-----|

 B5        C5
Hey! Hey! Hey! Hey!


e|--------------------------------------------------|
B|--------------------------------------------------|
G|--------------------------------------------------|
D|--------------------------------------------------|
A|-2-4-2-4-2-4-4---2-4-3-4-2-5---2-4-2-4---2-4---5--|
E|-0-2-0-2-0-2-2---0-2-0-2-0-3---0-2-0-2---0-2---3--|


e|--------------------------|
B|--------------------------|
G|--------------------------|
D|--------------------------|
A|-2-4-4-2-4-4--2-4-2-5-5-5-|
E|-0-2-2-0-2-2--0-2-0-3-3-3-|

                  ¡Preséntamela!

e|--------------------------|
B|--------------------------|
G|--------------------------|
D|--------------------------|
A|-2-4-4-2-4-4--2-4-2-5-5-5-|
E|-0-2-2-0-2-2--0-2-0-3-3-3-|

     Hey! Hey! Hey! Hey!


e|------------------------------------------------------|
B|------------------------------------------------------|
G|------------------------------------------------------|
D|------------------------------------------------------|
A|-2-4-4-2-4-4--2-4-2-4-4--2-4-4-2-4-2-4-2-4-2-5-5-5-4--|
E|-0-2-2-0-2-2--0-2-0-2-2--0-2-2-0-2-0-2-0-2-0-3-3-3-2--|


Ezo ez todo. Muy buena rola de Genitallica
ojala les sirva. Califiquen ustedez.
Comentarioz, sujerenzias o petizionez al correo
chonitoramone_sk8punk@
Suggest correction
Give kudos to tab author, rate the tab!
1 2 3 4 5
comments
print report bad tab
guest
Wanna post a correction for this tab? Suggest correction