Oops, an error
Loading. Please wait.

Teléfono Tab

version 2
version 2

Whole song

Interactive

29 views 1 this week
no commentswrite comment
1 2 3 4 5
3 more votes to show rating
add to favorites
launch autoscroll
font size
0
reset
how to read this tab
guitar tuner
Autoscroll
slow
fast
+/-
esc
set tempo
stop
Help us to improve Ultimate-Guitar.com Take our survey!
×
Ke ondas gente banda raza cuates etc...
bno pss esta es mi primera aportacion a esta pagina
la neta la rola esta muy chida y muy sencilla,
nomas me falta una partesita pero no me se las pisadas,
asi que si alguien sabe pss que aflohe jeje
bueno espero ke la disfruten ;D

Bno pss esta parte viene siendo el intro:
|---------------------------------------------|
|---------------------------------------------|
|--------7------------------------------------|
|-3------7-(x3)-7------10---------------------|  x3
|-3-(x3)-5------7-(x3)-10-(x5)----------------|
|-1-------------5------8----------------------|

aqui viene la parte de "si me dices que si..."
|---------------------------------------------|
|---------------------------------------------|
|---------------------------------------------|
|---------------------------------------------|
|--8---12---10---15--14---8---12--10----------|
|--6---10---8----13--12---6---10--8-----------|

despues el coro ke es lo de "contestame el pinche..."
|-------------------------------------------------------|
|-------------------------------------------------------|
|-------3------5------3------7-------------7------5-----|
|-3-----3(x1)--5(x1)--3(x?)--7(x?)--7------7(x1)--5(x?)-| x2
|-3(x?)-1------3------1------5------7(x1)--5------3-----|
|-1---------------------------------5-------------------|

despues la otra parte de "pues solo quiero la..." va asi
|------------------------------------------------|
|------------------------------------------------|
|---------3-------2-------5----------------------|
|-3-------3-(x7)--2-(x7)--5-(x7)-----------------| x2
|-3-(x7)--1-------0-------3----------------------|
|-1----------------------------------------------|

esto es lo de "contesta ya no me agas mas sufrir,"
|------------------------------------------------|
|------------------------------------------------|
|------------------------------------------------|
|-8-8-8-7-8-8-8-7-8------------------------------|
|-8-8-8-7-8-8-8-7-8------------------------------|
|-6-6-6-5-6-6-6-5-6------------------------------|

despues se repite el intro en la parte de "desde el momento ..."
|---------------------------------------------|
|---------------------------------------------|
|--------7------------------------------------|
|-3------7-(x3)-7------10---------------------|  x3
|-3-(x3)-5------7-(x3)-10-(x5)----------------|
|-1-------------5------8----------------------|

y otra vez la parte de "si me dices que si..."
|---------------------------------------------|
|---------------------------------------------|
|---------------------------------------------|
|---------------------------------------------|
|--8---12---10---15--14---8---12--10----------|
|--6---10---8----13--12---6---10--8-----------|

y otra vez el coro xD
|-------------------------------------------------------|
|-------------------------------------------------------|
|-------3------5------3------7-------------7------5-----|
|-3-----3(x1)--5(x1)--3(x?)--7(x?)--7------7(x1)--5(x?)-| x2
|-3(x?)-1------3------1------5------7(x1)--5------3-----|
|-1---------------------------------5-------------------|

y otra vez la segunda parte del coro...
|------------------------------------------------|
|------------------------------------------------|
|---------3-------2-------5----------------------|
|-3-------3-(x7)--2-(x7)--5-(x7)-----------------| x2
|-3-(x7)--1-------0-------3----------------------|
|-1----------------------------------------------|

y lo de "contesta ya no me agas mas sufrir..."
|------------------------------------------------|
|------------------------------------------------|
|------------------------------------------------|
|-8-8-8-7-8-8-8-7-8------------------------------|
|-8-8-8-7-8-8-8-7-8------------------------------|
|-6-6-6-5-6-6-6-5-6------------------------------|

despues sigue lo de "solo quiero la oportunidad..."
|------------------------------------------------|
|------------------------------------------------|
|------------------------------------------------|
|------------------------------------------------|  x2
|-3333-5555----------------8888------------------|
|-----------5555-6666-8888-----------------------|
                       PM
cheken uds cuantas veces se rasguea

despues sigue una parte igual pero ahora son quintas
|------------------------------------------------|
|------------------------------------------------|
|-5555-7777--------------------------------------|
|-5555-7777-----------------------10-10-10-10----|  x2
|-3333-5555-7777-8888-10-10-10-10-8--8--8--8-----|
|-----------5555-6666-8--8--8--8-----------------|
cheken uds cuantas veces se razguea tmb aki

y otra vez el coro xD!
|-------------------------------------------------------|
|-------------------------------------------------------|
|-------3------5------3------7-------------7------5-----|
|-3-----3(x1)--5(x1)--3(x?)--7(x?)--7------7(x1)--5(x?)-| x2
|-3(x?)-1------3------1------5------7(x1)--5------3-----|
|-1---------------------------------5-------------------|

y otra vez lo de "solo quiero la oportunidad..."
|------------------------------------------------|
|------------------------------------------------|
|---------3-------2-------5----------------------|
|-3-------3-(x7)--2-(x7)--5-(x7)-----------------| x2
|-3-(x7)--1-------0-------3----------------------|
|-1----------------------------------------------|

y esto ya es el outro "contesta ya no..."
|------------------------------------------------|
|------------------------------------------------|
|------------------------------------------------|
|-8--8--8--7--8--8--8--7--8--7--5--7--5--3-------|
|-8--8--8--7--8--8--8--7--8--7--5--7--5--3-------|
|-6--6--6--5--6--6--6--5--6--5--3--5--3--1-------|

dudas kaleid0@ y que viva el Fuck 'N' Rock
Suggest correction
Give kudos to tab author, rate the tab!
1 2 3 4 5
comments
print report bad tab
guest
You may want to rate the tab now too:
select rating
Wanna post a correction for this tab? Suggest correction