Oops, an error
Loading. Please wait.

Un Gran Vacío Tab

by Gepe
512 views 9 this week
no commentswrite comment
1 2 3 4 5
3 more votes to show rating
add to favorites
launch autoscroll
font size
0
reset
how to read this tab
guitar tuner
Autoscroll
slow
fast
+/-
esc
set tempo
stop
Help us to improve Ultimate-Guitar.com Take our survey!
×
 A puro oído la saqué, porque me gustaba mucho en ese momento,
y aunque al parecer gepe la toca diferente, espero que les guste
y puedan expresar-sE.
que gepe haga conciertos baratos o gratis x chile..

(AFINACIÓN EN Mi)
]]suena mejor, con capo en traste I y tocar todo un espacio más agudo)


*A)INTRO

*Parte A1 (X2,se repite)
E----------------------------------------------------------
B-10---10---8--8---6--6---5--5---3--3---3--3-3/5--5---5--5-
G----------------------------------------------------------
D---10-------5------3------5------3------3---3--5------5---
A-8---8-----7-7----5-5----3-3----1-1----1-1--1/3-3----3-3--
E----------------------------------------------------------

*Parte A2
E---------------0------------------------
B-1--1---3--3------1---6--6---8--8---6--6
G----------------------------------------
D--3------3------3------3------5------3--
A-0-0----1-1----0-0----------------------
E----------------------6-6----8-8----6-6-
        (x3)       (x2)   (x3)

*B)I

si hay un gran vacío
en todo lo que ves
E-----------------------------------------------------------
B-10---10---8--8---6--6---5--5---3--3---5--5---6--6---5--5--
G-----------------------------------------------------------
D---10-------5------3------5------3------5------3------5----
A-8---8-----7-7----5-5----3-3----1-1----3-3----5-5----3-3---
E-----------------------------------------------------------

no le tengas miedo
no hay mucho más que hacer.
E------------------------------------------------------------------
B-10---10---8--8---6--6---5--5---3--3---5--5---1--1---3-----3/5--5-
G------------------------------------------------------------------
D---10-------5------3------5------3------5------3------3-------5---
A-8---8-----7-7----5-5----3-3----1-1----3-3----0-0----1-1---1/3-3--
E------------------------------------------------------------------
                                              (x2)    (x2)
*B)II

en todo el mundo
las piedras caen igual
si hay un gran vacío
ya sabes donde caerán.

*CORO:
el tiempo que pasa aquí en mi reloj
me dice que falta para lo mejor
E----------------------------------------
B-6--6---5--5---8--8----6------5-----1--1
G----------------------------------------   (x2) se repite
D--3------5------5-------3------5-----3--
A-5-5----3-3------------5-5----3-3---0-0-
E---------------8-8----------------------
  (x2)               (x2)

donde hubo fuego, cenizas quedarán
cuando el hielo quema, allí quiero --]

*INTERMEDIO
-]estar.
E-----------0------------------------
B----3--3------1---6--6---8--8---6--6
G------------------------------------
D-----3------3------3------5------3--
A----1-1----0-0----------------------
E------------------6-6----8-8----6-6-
    (x3)       (x2)   (x3)


*INTRO (sólo parte A1, x1)

*A)III   (se toca parte A1, x2)

cuando el día estuvo, la noche ya se va,
los dos al mismo tiempo.
donde hubo fuego, cenizas quedarán,
se vuelan con el tiempo.

*CORO

*INTERMEDIO

*INTRO (sólo parte A1, x1)

*B)IV

Si hay un gran vacío,
sólo quédate en él
Los amigos de siempre,
te ayudarán a estar de pie.

*INTERMEDIO -------------] con variante FINAL
E-----------0------------------------------
B----3--3------1---6--6---8--8---6-5-----7-
G---------------------------------------6--
D-----3------3------3------5-----------8---
A----1-1----0-0------------------3-3--9----
E------------------6-6----8-8--------------
    (x3)       (x2)   (x3)


---- o ----

!!
el que saque bien l canción bonus que trae después esa misma pista,
que la suba a la cuerdaa...esa:

"un recuerdo de ese amor...
que vivimos juntos desde que nació..."

ya buena onda, nos vemos
disfrutenla..
Juan
Suggest correction
Give kudos to tab author, rate the tab!
1 2 3 4 5
comments
print report bad tab
guest
You may want to rate the tab now too:
select rating
Wanna post a correction for this tab? Suggest correction