Oops, an error
Loading. Please wait.

En Vida Tab

23 views 1 this week
no commentswrite comment
1 2 3 4 5
3 more votes to show rating
add to favorites
launch autoscroll
font size
0
reset
how to read this tab
guitar tuner
Autoscroll
slow
fast
+/-
esc
set tempo
stop
INTRO:
    C#
e----------------------------------------------
B---6-6-4-6--6-6-4-6-6--6-9-6--6-6-4-6-6-------
G----------------------------------------------
D----------------------------------------------
A----------------------------------------------
E----------------------------------------------

    F7     A#m       F7     A#m          F#          Cm
e--------------------------------------------------------
B---2-6-4--2-4-2------2-6-4--2-4-2-------2-4-2-4-2-4-6---
G----------------3-3---------------3-3-------------------
D--------------------------------------------------------
A--------------------------------------------------------
E--------------------------------------------------------

   Cm
e------------------------   -----------------------------
B--4-2-4-------4-2-4-----   --4-2-4-------4-2-4--6-5-6---
G--------3---3-------3---   --------3---3----------------
D----------4-------------x3 ----------4------------------
A------------------------   -----------------------------
E------------------------   -----------------------------

CORO:
   C#
En vida que me quisieras
   C#
En vida que me quisieras
   F7        A#m
De muerto ya para que
   F7        A#m
De muerto ya para que
    F#               Cm
Ahí todo se ha de quedar

ESTROFA 1:
      F7      A#m
Si he sido yo molestoso
    F7          A#m
Con quienes más he querido
  F7        A#m
Pero sé que algún día

   F7      A#m
Se acabará tanta molestia
    C#
Si acaso me llegué el destino
   C#
De partir ya de este mundo
  F7      A#m
A nadie molestare
  F7      A#m
A nadie invitare
    F#               Cm
Ahí todo se ha de quedar

ESTROFA 2:
  F7       A#m
Y cuando vayas cholita
   F7     A#m
Al cementerio querido
  F7           A#m
Y me halles en una tumba
   F7         A#m
No vengas por mi a llorar
   C#
En vida hubiera querido
    C#
Que llores por mi cariño
   F7        A#m
De muerto ya para que
   F7        A#m
De muerto ya para que
    F#               Cm
Ahí todo se ha de quedar
Suggest correction
Give kudos to tab author, rate the tab!
1 2 3 4 5
comments
print report bad tab
guest
Wanna post a correction for this tab? Suggest correction