Oops, an error
Loading. Please wait.

En Preparación Tab

version 2
version 2

Whole song

296 views 1 this week
no commentswrite comment
1 2 3 4 5
3 more votes to show rating
add to favorites
launch autoscroll
font size
0
reset
how to read this tab
guitar tuner
Autoscroll
slow
fast
+/-
esc
set tempo
stop
puess para empesar esta transcripcion
esta hecha igual que gerardo ortiz compone
sus canciones estas se tocan casi con los mismos
acordess i se tocan ala
mitad del brazo de la guitarra
para qe se vean un poco mas norteñitas
i se escuche mejor i vaa asi...


Estas pequeñas escalas son las que usa mucho
Gerardo Ortiz i te sirven pa que subas o bajes de tono
I se oiga el cambio

(*)
d---------7--8--9--------
a------9------------------
e-------------------------

(**)
D-------------------------
a-------7--8--9---------
e-----9------------------

(***)
D------------------------
a--------5--6--7-------
e-----7------------------

esta cancion originalmente esta en SI mayor
pero tu la puedes tocar en LA o en So o en Do
solo es lo mismo pero en diferente traste

    B1       B2        B3
a----7-----------------------------------------
b----7---------7---------5----------------------
g----8---------9---------7---------------------
d----9---------8---------6---------------------
a--------------9---------7---------------------
e----------------------------------------------

aquí empiesaa con una pequeña esqala

a-------------------------------------------------
b-------------------------------------------------
g-------6--8-9-8-6--------------------------------
d----9-------------9-7-6--------------------------
a------------------------9--7---------------------
e-------------------------------------------------

d---------7--8--9--------
a------9------------------
e-------------------------


B1
Mato a muy temprana edad...
            (**) B2
por eso vivió traumado...

luego supero su trauma,
            (*)  B1           (***)
le entro duro a los chingasos
B3          B2            B1   (***)
ahora nadie lo detiene
   B3          B2      B1      (***)
dicen que se lleva ondeado
B3          B2       B1       (***)
el señor se la navega
   B3          B2       B1
con su cuerno por un lado

d---------7--8--9--------
a------9------------------
e-------------------------


  B1
si no sirves pa` matar
          (**) B 2
sirves para que te maten

yo te salgo por delante
                 (*) B 1      (***)
antes de que ellos me ataquen
   B3    B2         B1      (***)
con mi pechera y mi cuerno
  B3    B2      B1          (***)
soy bueno para el combate
   B3   B2      B1         (***)
encapuchado de negro
   B 3   B 2       B1
y mis botas militares

    (***)
D------------------------
a--------5--6--7-------
e-----7------------------


    B3             B 2
en preparación me encuentro

pa intégrame en el equipo
                               (*)  B1       (***)
traigo clave respetada y charola de maldito
    B3       B2      B1        (***)
por eso soy Manuel torres
  B3     B 2    B1     (***)
en la mafia conocido
   B3    B2    B1  (***)
¨M1¨ para mi gente
  B3    B2     B1    (***)
colaborador activo


d---------7--8--9--------
a------9------------------
e-------------------------


       B2      B1
a---------------7-----------
b---7----7------7------------
g---9----9------8------------
d---8----8------9------------
a---9----9-------------------
e-------------------------------


con ese termina asi bien rancheron i lento
toda la qancion es igual i la verdad esta muy facil
i es igual qe la qe toca Gerardo Ortiz i se las dejo pa
qe se la aprendan
vean los videos o escuchen las canciones
quando el toca con la pura guitarra
pa qe se den quenta de qe usa los mismos acordes
i todas las canciones son igualess solo en diferentes tono pero
misma forma de la mano
si quieren una cancion de el les puedo ayudar
solo diganme qual i la saqo :DD
Suggest correction
Give kudos to tab author, rate the tab!
1 2 3 4 5
comments
print report bad tab
guest
You may want to rate the tab now too:
select rating
Wanna post a correction for this tab? Suggest correction